  0
SECTION
  2
HEADER
  9
$ACADVER
  1
AC1009
  9
$INSBASE
 10
0.0
 20
0.0
 30
0.0
  9
$EXTMIN
 10
-0.211
 20
-2.549
 30
0.0
  9
$EXTMAX
 10
18.247
 20
19.414
 30
40.733
  9
$LIMMIN
 10
-4.938
 20
-3.304
  9
$LIMMAX
 10
2.638
 20
5.873
  9
$ORTHOMODE
 70
     0
  9
$REGENMODE
 70
     1
  9
$FILLMODE
 70
     1
  9
$QTEXTMODE
 70
     0
  9
$MIRRTEXT
 70
     1
  9
$DRAGMODE
 70
     2
  9
$LTSCALE
 40
1.0
  9
$OSMODE
 70
     0
  9
$ATTMODE
 70
     1
  9
$TEXTSIZE
 40
0.2
  9
$TRACEWID
 40
0.05
  9
$TEXTSTYLE
  7
STANDARD
  9
$CLAYER
  8
0
  9
$CELTYPE
  6
BYLAYER
  9
$CECOLOR
 62
   256
  9
$DIMSCALE
 40
1.0
  9
$DIMASZ
 40
0.18
  9
$DIMEXO
 40
0.063
  9
$DIMDLI
 40
0.38
  9
$DIMRND
 40
0.0
  9
$DIMDLE
 40
0.0
  9
$DIMEXE
 40
0.18
  9
$DIMTP
 40
0.0
  9
$DIMTM
 40
0.0
  9
$DIMTXT
 40
0.18
  9
$DIMCEN
 40
0.09
  9
$DIMTSZ
 40
0.0
  9
$DIMTOL
 70
     0
  9
$DIMLIM
 70
     0
  9
$DIMTIH
 70
     1
  9
$DIMTOH
 70
     1
  9
$DIMSE1
 70
     0
  9
$DIMSE2
 70
     0
  9
$DIMTAD
 70
     0
  9
$DIMZIN
 70
     0
  9
$DIMBLK
  1

  9
$DIMASO
 70
     1
  9
$DIMSHO
 70
     0
  9
$DIMPOST
  1

  9
$DIMAPOST
  1

  9
$DIMALT
 70
     0
  9
$DIMALTD
 70
     2
  9
$DIMALTF
 40
25.4
  9
$DIMLFAC
 40
1.0
  9
$DIMTOFL
 70
     0
  9
$DIMTVP
 40
0.0
  9
$DIMTIX
 70
     0
  9
$DIMSOXD
 70
     0
  9
$DIMSAH
 70
     0
  9
$DIMBLK1
  1

  9
$DIMBLK2
  1

  9
$DIMSTYLE
  2
*UNNAMED
  9
$DIMCLRD
 70
     0
  9
$DIMCLRE
 70
     0
  9
$DIMCLRT
 70
     0
  9
$DIMTFAC
 40
1.0
  9
$DIMGAP
 40
0.09
  9
$LUNITS
 70
     2
  9
$LUPREC
 70
     4
  9
$SKETCHINC
 40
0.1
  9
$FILLETRAD
 40
0.0
  9
$AUNITS
 70
     0
  9
$AUPREC
 70
     0
  9
$MENU
  1
ACAD
  9
$ELEVATION
 40
0.0
  9
$PELEVATION
 40
0.0
  9
$THICKNESS
 40
0.0
  9
$LIMCHECK
 70
     0
  9
$BLIPMODE
 70
     1
  9
$CHAMFERA
 40
0.0
  9
$CHAMFERB
 40
0.0
  9
$SKPOLY
 70
     0
  9
$TDCREATE
 40
2450115.590195370
  9
$TDUPDATE
 40
2450262.847007638
  9
$TDINDWG
 40
0.0049859954
  9
$TDUSRTIMER
 40
0.0049859954
  9
$USRTIMER
 70
     1
  9
$ANGBASE
 50
0.0
  9
$ANGDIR
 70
     0
  9
$PDMODE
 70
     0
  9
$PDSIZE
 40
0.0
  9
$PLINEWID
 40
0.0
  9
$COORDS
 70
     0
  9
$SPLFRAME
 70
     0
  9
$SPLINETYPE
 70
     6
  9
$SPLINESEGS
 70
     8
  9
$ATTDIA
 70
     0
  9
$ATTREQ
 70
     1
  9
$HANDLING
 70
     1
  9
$HANDSEED
  5
FBB
  9
$SURFTAB1
 70
     6
  9
$SURFTAB2
 70
     6
  9
$SURFTYPE
 70
     6
  9
$SURFU
 70
     6
  9
$SURFV
 70
     6
  9
$UCSNAME
  2

  9
$UCSORG
 10
0.0
 20
0.0
 30
0.0
  9
$UCSXDIR
 10
1.0
 20
0.0
 30
0.0
  9
$UCSYDIR
 10
0.0
 20
1.0
 30
0.0
  9
$PUCSNAME
  2

  9
$PUCSORG
 10
0.0
 20
0.0
 30
0.0
  9
$PUCSXDIR
 10
1.0
 20
0.0
 30
0.0
  9
$PUCSYDIR
 10
0.0
 20
1.0
 30
0.0
  9
$USERI1
 70
     0
  9
$USERI2
 70
     0
  9
$USERI3
 70
     0
  9
$USERI4
 70
     0
  9
$USERI5
 70
     0
  9
$USERR1
 40
0.0
  9
$USERR2
 40
0.0
  9
$USERR3
 40
0.0
  9
$USERR4
 40
0.0
  9
$USERR5
 40
0.0
  9
$WORLDVIEW
 70
     1
  9
$SHADEDGE
 70
     3
  9
$SHADEDIF
 70
    70
  9
$TILEMODE
 70
     1
  9
$MAXACTVP
 70
    16
  9
$PINSBASE
 10
0.0
 20
0.0
 30
0.0
  9
$PLIMCHECK
 70
     0
  9
$PEXTMIN
 10
1.000E+20
 20
1.000E+20
 30
1.000E+20
  9
$PEXTMAX
 10
-1.000E+20
 20
-1.000E+20
 30
-1.000E+20
  9
$PLIMMIN
 10
0.0
 20
0.0
  9
$PLIMMAX
 10
12.0
 20
9.0
  9
$UNITMODE
 70
     0
  9
$VISRETAIN
 70
     0
  9
$PLINEGEN
 70
     0
  9
$PSLTSCALE
 70
     1
  9
$TREEDEPTH
 70
  3020
  9
$DWGCODEPAGE
  3
iso8859-1
  0
ENDSEC
  0
SECTION
  2
TABLES
  0
TABLE
  2
VPORT
 70
     2
  0
VPORT
  2
*ACTIVE
 70
     0
 10
0.0
 20
0.0
 11
1.0
 21
1.0
 12
19.189936
 22
9.50499
 13
0.0
 23
0.0
 14
1.0
 24
1.0
 15
0.0
 25
0.0
 16
1.0
 26
1.0
 36
1.0
 17
0.0
 27
0.0
 37
0.0
 40
49.759863
 41
1.36234
 42
50.0
 43
0.0
 44
0.0
 50
0.0
 51
0.0
 71
     0
 72
   100
 73
     1
 74
     1
 75
     0
 76
     0
 77
     0
 78
     0
  0
ENDTAB
  0
TABLE
  2
LTYPE
 70
     1
  0
LTYPE
  2
CONTINUOUS
 70
    64
  3
Solid line
 72
    65
 73
     0
 40
0.0
  0
ENDTAB
  0
TABLE
  2
LAYER
 70
     3
  0
LAYER
  2
0
 70
     0
 62
     7
  6
CONTINUOUS
  0
LAYER
  2
12STG26-MAIN
 70
    64
 62
     7
  6
CONTINUOUS
  0
LAYER
  2
12STG26-FABRIC
 70
    64
 62
     3
  6
CONTINUOUS
  0
ENDTAB
  0
TABLE
  2
STYLE
 70
     1
  0
STYLE
  2
STANDARD
 70
     0
 40
0.0
 41
1.0
 50
0.0
 71
     0
 42
0.2
  3
txt
  4

  0
ENDTAB
  0
TABLE
  2
VIEW
 70
     0
  0
ENDTAB
  0
TABLE
  2
UCS
 70
     0
  0
ENDTAB
  0
TABLE
  2
APPID
 70
     3
  0
APPID
  2
ACAD
 70
    64
  0
APPID
  2
AVE_FINISH
 70
    64
  0
APPID
  2
AVE_ENTITY_MATERIAL
 70
    64
  0
ENDTAB
  0
TABLE
  2
DIMSTYLE
 70
     0
  0
ENDTAB
  0
ENDSEC
  0
SECTION
  2
BLOCKS
  0
ENDSEC
  0
SECTION
  2
ENTITIES
  0
POLYLINE
  8
12STG26-FABRIC
  5
3C0
 66
     1
 10
0.0
 20
0.0
 30
0.0
 70
    64
 71
   166
 72
   291
1001
AVE_ENTITY_MATERIAL
1002
{
1000

1002
{
1071
        0
1070
     0
1070
     0
1002
{
1070
     0
1070
     0
1070
     0
1040
0.0
1002
}
1070
     0
1070
     0
1002
{
1002
}
1002
}
1002
{
1002
}
1002
{
1002
}
1011
0.0
1021
0.0
1031
0.0
1011
1.0
1021
0.0
1031
0.0
1011
0.0
1021
1.0
1031
0.0
1011
0.0
1021
0.0
1031
1.0
1002
}
1001
AVE_FINISH
1002
{
1070
     0
1005
5E4
1002
}
  0
VERTEX
  8
12STG26-FABRIC
  5
3C1
 10
5.723
 20
7.744
 30
19.573
 70
   192
  0
VERTEX
  8
12STG26-FABRIC
  5
3C2
 10
4.15
 20
8.432
 30
19.573
 70
   192
  0
VERTEX
  8
12STG26-FABRIC
  5
3C3
 10
4.15
 20
7.055
 30
19.573
 70
   192
  0
VERTEX
  8
12STG26-FABRIC
  5
3C4
 10
4.15
 20
5.678
 30
19.573
 70
   192
  0
VERTEX
  8
12STG26-FABRIC
  5
3C5
 10
5.723
 20
7.055
 30
19.573
 70
   192
  0
VERTEX
  8
12STG26-FABRIC
  5
3C6
 10
7.297
 20
8.432
 30
19.573
 70
   192
  0
VERTEX
  8
12STG26-FABRIC
  5
3C7
 10
4.891
 20
5.647
 30
19.573
 70
   192
  0
VERTEX
  8
12STG26-FABRIC
  5
3C8
 10
6.466
 20
7.024
 30
19.573
 70
   192
  0
VERTEX
  8
12STG26-FABRIC
  5
3C9
 10
6.095
 20
7.039
 30
19.573
 70
   192
  0
VERTEX
  8
12STG26-FABRIC
  5
3CA
 10
6.84
 20
7.007
 30
19.573
 70
   192
  0
VERTEX
  8
12STG26-FABRIC
  5
3CB
 10
5.635
 20
5.615
 30
19.573
 70
   192
  0
VERTEX
  8
12STG26-FABRIC
  5
3CC
 10
6.383
 20
5.582
 30
19.573
 70
   192
  0
VERTEX
  8
12STG26-FABRIC
  5
3CD
 10
7.216
 20
6.99
 30
19.573
 70
   192
  0
VERTEX
  8
12STG26-FABRIC
  5
3CE
 10
7.982
 20
5.507
 30
19.573
 70
   192
  0
VERTEX
  8
12STG26-FABRIC
  5
3CF
 10
7.639
 20
6.97
 30
19.573
 70
   192
  0
VERTEX
  8
12STG26-FABRIC
  5
3D0
 10
8.041
 20
6.973
 30
19.573
 70
   192
  0
VERTEX
  8
12STG26-FABRIC
  5
3D1
 10
8.786
 20
5.513
 30
19.573
 70
   192
  0
VERTEX
  8
12STG26-FABRIC
  5
3D2
 10
8.401
 20
7.018
 30
19.573
 70
   192
  0
VERTEX
  8
12STG26-FABRIC
  5
3D3
 10
9.504
 20
5.602
 30
19.573
 70
   192
  0
VERTEX
  8
12STG26-FABRIC
  5
3D4
 10
8.586
 20
7.252
 30
19.573
 70
   192
  0
VERTEX
  8
12STG26-FABRIC
  5
3D5
 10
10.446
 20
7.308
 30
19.573
 70
   192
  0
VERTEX
  8
12STG26-FABRIC
  5
3D6
 10
8.755
 20
7.53
 30
19.573
 70
   192
  0
VERTEX
  8
12STG26-FABRIC
  5
3D7
 10
8.872
 20
7.871
 30
19.573
 70
   192
  0
VERTEX
  8
12STG26-FABRIC
  5
3D8
 10
10.444
 20
8.089
 30
19.573
 70
   192
  0
VERTEX
  8
12STG26-FABRIC
  5
3D9
 10
8.87
 20
8.261
 30
19.573
 70
   192
  0
VERTEX
  8
12STG26-FABRIC
  5
3DA
 10
8.87
 20
8.604
 30
19.573
 70
   192
  0
VERTEX
  8
12STG26-FABRIC
  5
3DB
 10
8.872
 20
8.994
 30
19.573
 70
   192
  0
VERTEX
  8
12STG26-FABRIC
  5
3DC
 10
10.213
 20
10.237
 30
19.573
 70
   192
  0
VERTEX
  8
12STG26-FABRIC
  5
3DD
 10
8.755
 20
9.335
 30
19.573
 70
   192
  0
VERTEX
  8
12STG26-FABRIC
  5
3DE
 10
8.586
 20
9.613
 30
19.573
 70
   192
  0
VERTEX
  8
12STG26-FABRIC
  5
3DF
 10
8.401
 20
9.847
 30
19.573
 70
   192
  0
VERTEX
  8
12STG26-FABRIC
  5
3E0
 10
9.504
 20
11.263
 30
19.573
 70
   192
  0
VERTEX
  8
12STG26-FABRIC
  5
3E1
 10
8.041
 20
9.892
 30
19.573
 70
   192
  0
VERTEX
  8
12STG26-FABRIC
  5
3E2
 10
7.216
 20
9.875
 30
19.573
 70
   192
  0
VERTEX
  8
12STG26-FABRIC
  5
3E3
 10
7.639
 20
9.895
 30
19.573
 70
   192
  0
VERTEX
  8
12STG26-FABRIC
  5
3E4
 10
6.466
 20
9.841
 30
19.573
 70
   192
  0
VERTEX
  8
12STG26-FABRIC
  5
3E5
 10
6.84
 20
9.858
 30
19.573
 70
   192
  0
VERTEX
  8
12STG26-FABRIC
  5
3E6
 10
6.095
 20
9.826
 30
19.573
 70
   192
  0
VERTEX
  8
12STG26-FABRIC
  5
3E7
 10
5.723
 20
9.81
 30
19.573
 70
   192
  0
VERTEX
  8
12STG26-FABRIC
  5
3E8
 10
4.15
 20
9.81
 30
19.573
 70
   192
  0
VERTEX
  8
12STG26-FABRIC
  5
3E9
 10
5.723
 20
9.121
 30
19.573
 70
   192
  0
VERTEX
  8
12STG26-FABRIC
  5
3EA
 10
5.723
 20
8.432
 30
19.573
 70
   192
  0
VERTEX
  8
12STG26-FABRIC
  5
3EB
 10
2.626
 20
3.325
 30
19.111
 70
   192
  0
VERTEX
  8
12STG26-FABRIC
  5
3EC
 10
9.991
 20
2.713
 30
19.382
 70
   192
  0
VERTEX
  8
12STG26-FABRIC
  5
3ED
 10
7.135
 20
5.548
 30
19.573
 70
   192
  0
VERTEX
  8
12STG26-FABRIC
  5
3EE
 10
9.875
 20
6.071
 30
19.573
 70
   192
  0
VERTEX
  8
12STG26-FABRIC
  5
3EF
 10
10.213
 20
6.628
 30
19.573
 70
   192
  0
VERTEX
  8
12STG26-FABRIC
  5
3F0
 10
13.638
 20
4.159
 30
19.382
 70
   192
  0
VERTEX
  8
12STG26-FABRIC
  5
3F1
 10
14.128
 20
8.432
 30
19.382
 70
   192
  0
VERTEX
  8
12STG26-FABRIC
  5
3F2
 10
6.098
 20
3.066
 30
19.382
 70
   192
  0
VERTEX
  8
12STG26-FABRIC
  5
3F3
 10
4.662
 20
3.194
 30
19.382
 70
   192
  0
VERTEX
  8
12STG26-FABRIC
  5
3F4
 10
4.8
 20
1.818
 30
19.193
 70
   192
  0
VERTEX
  8
12STG26-FABRIC
  5
3F5
 10
7.39
 20
2.947
 30
19.382
 70
   192
  0
VERTEX
  8
12STG26-FABRIC
  5
3F6
 10
9.935
 20
1.21
 30
19.193
 70
   192
  0
VERTEX
  8
12STG26-FABRIC
  5
3F7
 10
8.5
 20
2.844
 30
19.382
 70
   192
  0
VERTEX
  8
12STG26-FABRIC
  5
3F8
 10
8.456
 20
1.392
 30
19.193
 70
   192
  0
VERTEX
  8
12STG26-FABRIC
  5
3F9
 10
11.422
 20
1.034
 30
19.193
 70
   192
  0
VERTEX
  8
12STG26-FABRIC
  5
3FA
 10
11.314
 20
2.611
 30
19.382
 70
   192
  0
VERTEX
  8
12STG26-FABRIC
  5
3FB
 10
13.12
 20
0.87
 30
19.193
 70
   192
  0
VERTEX
  8
12STG26-FABRIC
  5
3FC
 10
12.571
 20
2.582
 30
19.382
 70
   192
  0
VERTEX
  8
12STG26-FABRIC
  5
3FD
 10
13.283
 20
3.052
 30
19.382
 70
   192
  0
VERTEX
  8
12STG26-FABRIC
  5
3FE
 10
15.518
 20
3.173
 30
19.193
 70
   192
  0
VERTEX
  8
12STG26-FABRIC
  5
3FF
 10
15.786
 20
4.655
 30
19.193
 70
   192
  0
VERTEX
  8
12STG26-FABRIC
  5
400
 10
13.936
 20
5.294
 30
19.382
 70
   192
  0
VERTEX
  8
12STG26-FABRIC
  5
401
 10
14.083
 20
6.643
 30
19.382
 70
   192
  0
VERTEX
  8
12STG26-FABRIC
  5
402
 10
15.888
 20
6.268
 30
19.193
 70
   192
  0
VERTEX
  8
12STG26-FABRIC
  5
403
 10
14.058
 20
7.76
 30
19.382
 70
   192
  0
VERTEX
  8
12STG26-FABRIC
  5
404
 10
5.062
 20
0.858
 30
19.003
 70
   192
  0
VERTEX
  8
12STG26-FABRIC
  5
405
 10
2.898
 20
2.01
 30
18.908
 70
   192
  0
VERTEX
  8
12STG26-FABRIC
  5
406
 10
6.8
 20
1.59
 30
19.193
 70
   192
  0
VERTEX
  8
12STG26-FABRIC
  5
407
 10
14.593
 20
0.822
 30
19.193
 70
   192
  0
VERTEX
  8
12STG26-FABRIC
  5
408
 10
14.323
 20
-0.412
 30
19.003
 70
   192
  0
VERTEX
  8
12STG26-FABRIC
  5
409
 10
15.163
 20
1.723
 30
19.193
 70
   192
  0
VERTEX
  8
12STG26-FABRIC
  5
40A
 10
17.008
 20
4.196
 30
19.003
 70
   192
  0
VERTEX
  8
12STG26-FABRIC
  5
40B
 10
15.863
 20
7.562
 30
19.193
 70
   192
  0
VERTEX
  8
12STG26-FABRIC
  5
40C
 10
17.092
 20
5.988
 30
19.003
 70
   192
  0
VERTEX
  8
12STG26-FABRIC
  5
40D
 10
17.065
 20
7.416
 30
19.003
 70
   192
  0
VERTEX
  8
12STG26-FABRIC
  5
40E
 10
17.095
 20
8.432
 30
19.003
 70
   192
  0
VERTEX
  8
12STG26-FABRIC
  5
40F
 10
5.113
 20
0.232
 30
18.814
 70
   192
  0
VERTEX
  8
12STG26-FABRIC
  5
410
 10
3.173
 20
1.06
 30
19.003
 70
   192
  0
VERTEX
  8
12STG26-FABRIC
  5
411
 10
3.173
 20
0.485
 30
18.814
 70
   192
  0
VERTEX
  8
12STG26-FABRIC
  5
412
 10
9.109
 20
0.277
 30
19.003
 70
   192
  0
VERTEX
  8
12STG26-FABRIC
  5
413
 10
7.55
 20
-0.094
 30
18.814
 70
   192
  0
VERTEX
  8
12STG26-FABRIC
  5
414
 10
7.452
 20
0.506
 30
19.003
 70
   192
  0
VERTEX
  8
12STG26-FABRIC
  5
415
 10
9.294
 20
-0.34
 30
18.814
 70
   192
  0
VERTEX
  8
12STG26-FABRIC
  5
416
 10
12.625
 20
-0.223
 30
19.003
 70
   192
  0
VERTEX
  8
12STG26-FABRIC
  5
417
 10
10.769
 20
0.035
 30
19.003
 70
   192
  0
VERTEX
  8
12STG26-FABRIC
  5
418
 10
11.041
 20
-0.601
 30
18.814
 70
   192
  0
VERTEX
  8
12STG26-FABRIC
  5
419
 10
12.996
 20
-0.88
 30
18.814
 70
   192
  0
VERTEX
  8
12STG26-FABRIC
  5
41A
 10
14.98
 20
-1.099
 30
18.814
 70
   192
  0
VERTEX
  8
12STG26-FABRIC
  5
41B
 10
16.446
 20
0.919
 30
19.003
 70
   192
  0
VERTEX
  8
12STG26-FABRIC
  5
41C
 10
15.964
 20
-0.455
 30
19.003
 70
   192
  0
VERTEX
  8
12STG26-FABRIC
  5
41D
 10
17.048
 20
0.462
 30
18.814
 70
   192
  0
VERTEX
  8
12STG26-FABRIC
  5
41E
 10
16.606
 20
-1.106
 30
18.814
 70
   192
  0
VERTEX
  8
12STG26-FABRIC
  5
41F
 10
17.616
 20
3.949
 30
18.814
 70
   192
  0
VERTEX
  8
12STG26-FABRIC
  5
420
 10
16.759
 20
2.465
 30
19.003
 70
   192
  0
VERTEX
  8
12STG26-FABRIC
  5
421
 10
17.369
 20
2.112
 30
18.814
 70
   192
  0
VERTEX
  8
12STG26-FABRIC
  5
422
 10
17.696
 20
5.814
 30
18.814
 70
   192
  0
VERTEX
  8
12STG26-FABRIC
  5
423
 10
17.669
 20
7.339
 30
18.814
 70
   192
  0
VERTEX
  8
12STG26-FABRIC
  5
424
 10
17.711
 20
8.432
 30
18.814
 70
   192
  0
VERTEX
  8
12STG26-FABRIC
  5
425
 10
4.662
 20
13.67
 30
19.382
 70
   192
  0
VERTEX
  8
12STG26-FABRIC
  5
426
 10
2.626
 20
13.54
 30
19.111
 70
   192
  0
VERTEX
  8
12STG26-FABRIC
  5
427
 10
6.098
 20
13.799
 30
19.382
 70
   192
  0
VERTEX
  8
12STG26-FABRIC
  5
428
 10
4.891
 20
11.218
 30
19.573
 70
   192
  0
VERTEX
  8
12STG26-FABRIC
  5
429
 10
5.635
 20
11.25
 30
19.573
 70
   192
  0
VERTEX
  8
12STG26-FABRIC
  5
42A
 10
6.383
 20
11.282
 30
19.573
 70
   192
  0
VERTEX
  8
12STG26-FABRIC
  5
42B
 10
7.135
 20
11.317
 30
19.573
 70
   192
  0
VERTEX
  8
12STG26-FABRIC
  5
42C
 10
8.5
 20
14.021
 30
19.382
 70
   192
  0
VERTEX
  8
12STG26-FABRIC
  5
42D
 10
7.982
 20
11.358
 30
19.573
 70
   192
  0
VERTEX
  8
12STG26-FABRIC
  5
42E
 10
13.283
 20
13.813
 30
19.382
 70
   192
  0
VERTEX
  8
12STG26-FABRIC
  5
42F
 10
8.786
 20
11.352
 30
19.573
 70
   192
  0
VERTEX
  8
12STG26-FABRIC
  5
430
 10
9.875
 20
10.794
 30
19.573
 70
   192
  0
VERTEX
  8
12STG26-FABRIC
  5
431
 10
10.446
 20
9.557
 30
19.573
 70
   192
  0
VERTEX
  8
12STG26-FABRIC
  5
432
 10
14.058
 20
9.104
 30
19.382
 70
   192
  0
VERTEX
  8
12STG26-FABRIC
  5
433
 10
10.445
 20
8.432
 30
19.573
 70
   192
  0
VERTEX
  8
12STG26-FABRIC
  5
434
 10
10.444
 20
8.776
 30
19.573
 70
   192
  0
VERTEX
  8
12STG26-FABRIC
  5
435
 10
2.898
 20
14.855
 30
18.908
 70
   192
  0
VERTEX
  8
12STG26-FABRIC
  5
436
 10
8.456
 20
15.473
 30
19.193
 70
   192
  0
VERTEX
  8
12STG26-FABRIC
  5
437
 10
7.39
 20
13.918
 30
19.382
 70
   192
  0
VERTEX
  8
12STG26-FABRIC
  5
438
 10
11.422
 20
15.83
 30
19.193
 70
   192
  0
VERTEX
  8
12STG26-FABRIC
  5
439
 10
9.991
 20
14.152
 30
19.382
 70
   192
  0
VERTEX
  8
12STG26-FABRIC
  5
43A
 10
9.935
 20
15.655
 30
19.193
 70
   192
  0
VERTEX
  8
12STG26-FABRIC
  5
43B
 10
11.314
 20
14.254
 30
19.382
 70
   192
  0
VERTEX
  8
12STG26-FABRIC
  5
43C
 10
15.163
 20
15.142
 30
19.193
 70
   192
  0
VERTEX
  8
12STG26-FABRIC
  5
43D
 10
12.571
 20
14.282
 30
19.382
 70
   192
  0
VERTEX
  8
12STG26-FABRIC
  5
43E
 10
14.593
 20
16.043
 30
19.193
 70
   192
  0
VERTEX
  8
12STG26-FABRIC
  5
43F
 10
13.638
 20
12.706
 30
19.382
 70
   192
  0
VERTEX
  8
12STG26-FABRIC
  5
440
 10
13.936
 20
11.57
 30
19.382
 70
   192
  0
VERTEX
  8
12STG26-FABRIC
  5
441
 10
15.518
 20
13.692
 30
19.193
 70
   192
  0
VERTEX
  8
12STG26-FABRIC
  5
442
 10
15.888
 20
10.597
 30
19.193
 70
   192
  0
VERTEX
  8
12STG26-FABRIC
  5
443
 10
15.863
 20
9.302
 30
19.193
 70
   192
  0
VERTEX
  8
12STG26-FABRIC
  5
444
 10
14.083
 20
10.222
 30
19.382
 70
   192
  0
VERTEX
  8
12STG26-FABRIC
  5
445
 10
15.934
 20
8.432
 30
19.193
 70
   192
  0
VERTEX
  8
12STG26-FABRIC
  5
446
 10
5.062
 20
16.007
 30
19.003
 70
   192
  0
VERTEX
  8
12STG26-FABRIC
  5
447
 10
4.8
 20
15.047
 30
19.193
 70
   192
  0
VERTEX
  8
12STG26-FABRIC
  5
448
 10
7.452
 20
16.358
 30
19.003
 70
   192
  0
VERTEX
  8
12STG26-FABRIC
  5
449
 10
6.8
 20
15.275
 30
19.193
 70
   192
  0
VERTEX
  8
12STG26-FABRIC
  5
44A
 10
10.769
 20
16.83
 30
19.003
 70
   192
  0
VERTEX
  8
12STG26-FABRIC
  5
44B
 10
9.109
 20
16.588
 30
19.003
 70
   192
  0
VERTEX
  8
12STG26-FABRIC
  5
44C
 10
12.625
 20
17.088
 30
19.003
 70
   192
  0
VERTEX
  8
12STG26-FABRIC
  5
44D
 10
14.323
 20
17.276
 30
19.003
 70
   192
  0
VERTEX
  8
12STG26-FABRIC
  5
44E
 10
13.12
 20
15.995
 30
19.193
 70
   192
  0
VERTEX
  8
12STG26-FABRIC
  5
44F
 10
16.759
 20
14.4
 30
19.003
 70
   192
  0
VERTEX
  8
12STG26-FABRIC
  5
450
 10
16.446
 20
15.946
 30
19.003
 70
   192
  0
VERTEX
  8
12STG26-FABRIC
  5
451
 10
17.008
 20
12.668
 30
19.003
 70
   192
  0
VERTEX
  8
12STG26-FABRIC
  5
452
 10
15.786
 20
12.21
 30
19.193
 70
   192
  0
VERTEX
  8
12STG26-FABRIC
  5
453
 10
17.092
 20
10.877
 30
19.003
 70
   192
  0
VERTEX
  8
12STG26-FABRIC
  5
454
 10
17.065
 20
9.449
 30
19.003
 70
   192
  0
VERTEX
  8
12STG26-FABRIC
  5
455
 10
3.173
 20
15.805
 30
19.003
 70
   192
  0
VERTEX
  8
12STG26-FABRIC
  5
456
 10
3.173
 20
16.38
 30
18.814
 70
   192
  0
VERTEX
  8
12STG26-FABRIC
  5
457
 10
5.113
 20
16.633
 30
18.814
 70
   192
  0
VERTEX
  8
12STG26-FABRIC
  5
458
 10
7.55
 20
16.958
 30
18.814
 70
   192
  0
VERTEX
  8
12STG26-FABRIC
  5
459
 10
9.294
 20
17.204
 30
18.814
 70
   192
  0
VERTEX
  8
12STG26-FABRIC
  5
45A
 10
11.041
 20
17.466
 30
18.814
 70
   192
  0
VERTEX
  8
12STG26-FABRIC
  5
45B
 10
12.996
 20
17.744
 30
18.814
 70
   192
  0
VERTEX
  8
12STG26-FABRIC
  5
45C
 10
16.606
 20
17.971
 30
18.814
 70
   192
  0
VERTEX
  8
12STG26-FABRIC
  5
45D
 10
14.98
 20
17.964
 30
18.814
 70
   192
  0
VERTEX
  8
12STG26-FABRIC
  5
45E
 10
17.048
 20
16.403
 30
18.814
 70
   192
  0
VERTEX
  8
12STG26-FABRIC
  5
45F
 10
15.964
 20
17.32
 30
19.003
 70
   192
  0
VERTEX
  8
12STG26-FABRIC
  5
460
 10
17.369
 20
14.753
 30
18.814
 70
   192
  0
VERTEX
  8
12STG26-FABRIC
  5
461
 10
17.616
 20
12.916
 30
18.814
 70
   192
  0
VERTEX
  8
12STG26-FABRIC
  5
462
 10
17.696
 20
11.051
 30
18.814
 70
   192
  0
VERTEX
  8
12STG26-FABRIC
  5
463
 10
17.669
 20
9.526
 30
18.814
 70
   192
  0
VERTEX
  8
12STG26-FABRIC
  5
464
 10
2.351
 20
11.147
 30
19.199
 70
   192
  0
VERTEX
  8
12STG26-FABRIC
  5
465
 10
4.15
 20
11.186
 30
19.573
 70
   192
  0
VERTEX
  8
12STG26-FABRIC
  5
466
 10
2.351
 20
5.718
 30
19.199
 70
   192
  0
VERTEX
  8
12STG26-FABRIC
  5
467
 10
0.0
 20
0.0
 30
0.0
 70
   128
 71
   -42
 72
    -2
 73
    -1
  0
VERTEX
  8
12STG26-FABRIC
  5
468
 10
0.0
 20
0.0
 30
0.0
 70
   128
 71
    -3
 72
    -1
 73
    -2
  0
VERTEX
  8
12STG26-FABRIC
  5
469
 10
0.0
 20
0.0
 30
0.0
 70
   128
 71
    -1
 72
    -6
 73
   -42
  0
VERTEX
  8
12STG26-FABRIC
  5
46A
 10
0.0
 20
0.0
 30
0.0
 70
   128
 71
    -1
 72
    -3
 73
    -5
  0
VERTEX
  8
12STG26-FABRIC
  5
46B
 10
0.0
 20
0.0
 30
0.0
 70
   128
 71
    -4
 72
    -5
 73
    -3
  0
VERTEX
  8
12STG26-FABRIC
  5
46C
 10
0.0
 20
0.0
 30
0.0
 70
   128
 71
    -5
 72
    -6
 73
    -1
  0
VERTEX
  8
12STG26-FABRIC
  5
46D
 10
0.0
 20
0.0
 30
0.0
 70
   128
 71
    -5
 72
    -4
 73
    -9
  0
VERTEX
  8
12STG26-FABRIC
  5
46E
 10
0.0
 20
0.0
 30
0.0
 70
   128
 71
    -7
 72
    -9
 73
    -4
  0
VERTEX
  8
12STG26-FABRIC
  5
46F
 10
0.0
 20
0.0
 30
0.0
 70
   128
 71
    -9
 72
    -6
 73
    -5
  0
VERTEX
  8
12STG26-FABRIC
  5
470
 10
0.0
 20
0.0
 30
0.0
 70
   128
 71
    -9
 72
    -7
 73
    -8
  0
VERTEX
  8
12STG26-FABRIC
  5
471
 10
0.0
 20
0.0
 30
0.0
 70
   128
 71
   -11
 72
    -8
 73
    -7
  0
VERTEX
  8
12STG26-FABRIC
  5
472
 10
0.0
 20
0.0
 30
0.0
 70
   128
 71
    -8
 72
    -6
 73
    -9
  0
VERTEX
  8
12STG26-FABRIC
  5
473
 10
0.0
 20
0.0
 30
0.0
 70
   128
 71
    -8
 72
   -11
 73
   -10
  0
VERTEX
  8
12STG26-FABRIC
  5
474
 10
0.0
 20
0.0
 30
0.0
 70
   128
 71
   -12
 72
   -10
 73
   -11
  0
VERTEX
  8
12STG26-FABRIC
  5
475
 10
0.0
 20
0.0
 30
0.0
 70
   128
 71
   -10
 72
    -6
 73
    -8
  0
VERTEX
  8
12STG26-FABRIC
  5
476
 10
0.0
 20
0.0
 30
0.0
 70
   128
 71
   -10
 72
   -12
 73
   -13
  0
VERTEX
  8
12STG26-FABRIC
  5
477
 10
0.0
 20
0.0
 30
0.0
 70
   128
 71
   -45
 72
   -13
 73
   -12
  0
VERTEX
  8
12STG26-FABRIC
  5
478
 10
0.0
 20
0.0
 30
0.0
 70
   128
 71
   -13
 72
    -6
 73
   -10
  0
VERTEX
  8
12STG26-FABRIC
  5
479
 10
0.0
 20
0.0
 30
0.0
 70
   128
 71
   -13
 72
   -45
 73
   -15
  0
VERTEX
  8
12STG26-FABRIC
  5
47A
 10
0.0
 20
0.0
 30
0.0
 70
   128
 71
   -14
 72
   -15
 73
   -45
  0
VERTEX
  8
12STG26-FABRIC
  5
47B
 10
0.0
 20
0.0
 30
0.0
 70
   128
 71
   -15
 72
    -6
 73
   -13
  0
VERTEX
  8
12STG26-FABRIC
  5
47C
 10
0.0
 20
0.0
 30
0.0
 70
   128
 71
   -15
 72
   -14
 73
   -16
  0
VERTEX
  8
12STG26-FABRIC
  5
47D
 10
0.0
 20
0.0
 30
0.0
 70
   128
 71
   -17
 72
   -16
 73
   -14
  0
VERTEX
  8
12STG26-FABRIC
  5
47E
 10
0.0
 20
0.0
 30
0.0
 70
   128
 71
   -16
 72
    -6
 73
   -15
  0
VERTEX
  8
12STG26-FABRIC
  5
47F
 10
0.0
 20
0.0
 30
0.0
 70
   128
 71
   -16
 72
   -17
 73
   -18
  0
VERTEX
  8
12STG26-FABRIC
  5
480
 10
0.0
 20
0.0
 30
0.0
 70
   128
 71
   -19
 72
   -18
 73
   -17
  0
VERTEX
  8
12STG26-FABRIC
  5
481
 10
0.0
 20
0.0
 30
0.0
 70
   128
 71
   -18
 72
    -6
 73
   -16
  0
VERTEX
  8
12STG26-FABRIC
  5
482
 10
0.0
 20
0.0
 30
0.0
 70
   128
 71
   -18
 72
   -19
 73
   -20
  0
VERTEX
  8
12STG26-FABRIC
  5
483
 10
0.0
 20
0.0
 30
0.0
 70
   128
 71
   -46
 72
   -20
 73
   -19
  0
VERTEX
  8
12STG26-FABRIC
  5
484
 10
0.0
 20
0.0
 30
0.0
 70
   128
 71
   -20
 72
    -6
 73
   -18
  0
VERTEX
  8
12STG26-FABRIC
  5
485
 10
0.0
 20
0.0
 30
0.0
 70
   128
 71
   -20
 72
   -46
 73
   -22
  0
VERTEX
  8
12STG26-FABRIC
  5
486
 10
0.0
 20
0.0
 30
0.0
 70
   128
 71
   -47
 72
   -22
 73
   -46
  0
VERTEX
  8
12STG26-FABRIC
  5
487
 10
0.0
 20
0.0
 30
0.0
 70
   128
 71
   -22
 72
    -6
 73
   -20
  0
VERTEX
  8
12STG26-FABRIC
  5
488
 10
0.0
 20
0.0
 30
0.0
 70
   128
 71
   -22
 72
   -47
 73
   -23
  0
VERTEX
  8
12STG26-FABRIC
  5
489
 10
0.0
 20
0.0
 30
0.0
 70
   128
 71
   -21
 72
   -23
 73
   -47
  0
VERTEX
  8
12STG26-FABRIC
  5
48A
 10
0.0
 20
0.0
 30
0.0
 70
   128
 71
   -23
 72
    -6
 73
   -22
  0
VERTEX
  8
12STG26-FABRIC
  5
48B
 10
0.0
 20
0.0
 30
0.0
 70
   128
 71
   -23
 72
   -21
 73
   -25
  0
VERTEX
  8
12STG26-FABRIC
  5
48C
 10
0.0
 20
0.0
 30
0.0
 70
   128
 71
   -24
 72
   -25
 73
   -21
  0
VERTEX
  8
12STG26-FABRIC
  5
48D
 10
0.0
 20
0.0
 30
0.0
 70
   128
 71
   -25
 72
    -6
 73
   -23
  0
VERTEX
  8
12STG26-FABRIC
  5
48E
 10
0.0
 20
0.0
 30
0.0
 70
   128
 71
   -25
 72
   -24
 73
   -26
  0
VERTEX
  8
12STG26-FABRIC
  5
48F
 10
0.0
 20
0.0
 30
0.0
 70
   128
 71
  -116
 72
   -26
 73
   -24
  0
VERTEX
  8
12STG26-FABRIC
  5
490
 10
0.0
 20
0.0
 30
0.0
 70
   128
 71
   -26
 72
    -6
 73
   -25
  0
VERTEX
  8
12STG26-FABRIC
  5
491
 10
0.0
 20
0.0
 30
0.0
 70
   128
 71
   -26
 72
  -116
 73
   -27
  0
VERTEX
  8
12STG26-FABRIC
  5
492
 10
0.0
 20
0.0
 30
0.0
 70
   128
 71
  -113
 72
   -27
 73
  -116
  0
VERTEX
  8
12STG26-FABRIC
  5
493
 10
0.0
 20
0.0
 30
0.0
 70
   128
 71
   -27
 72
    -6
 73
   -26
  0
VERTEX
  8
12STG26-FABRIC
  5
494
 10
0.0
 20
0.0
 30
0.0
 70
   128
 71
   -27
 72
  -113
 73
   -29
  0
VERTEX
  8
12STG26-FABRIC
  5
495
 10
0.0
 20
0.0
 30
0.0
 70
   128
 71
   -28
 72
   -29
 73
  -113
  0
VERTEX
  8
12STG26-FABRIC
  5
496
 10
0.0
 20
0.0
 30
0.0
 70
   128
 71
   -29
 72
    -6
 73
   -27
  0
VERTEX
  8
12STG26-FABRIC
  5
497
 10
0.0
 20
0.0
 30
0.0
 70
   128
 71
   -29
 72
   -28
 73
   -30
  0
VERTEX
  8
12STG26-FABRIC
  5
498
 10
0.0
 20
0.0
 30
0.0
 70
   128
 71
  -112
 72
   -30
 73
   -28
  0
VERTEX
  8
12STG26-FABRIC
  5
499
 10
0.0
 20
0.0
 30
0.0
 70
   128
 71
   -30
 72
    -6
 73
   -29
  0
VERTEX
  8
12STG26-FABRIC
  5
49A
 10
0.0
 20
0.0
 30
0.0
 70
   128
 71
   -30
 72
  -112
 73
   -31
  0
VERTEX
  8
12STG26-FABRIC
  5
49B
 10
0.0
 20
0.0
 30
0.0
 70
   128
 71
   -32
 72
   -31
 73
  -112
  0
VERTEX
  8
12STG26-FABRIC
  5
49C
 10
0.0
 20
0.0
 30
0.0
 70
   128
 71
   -31
 72
    -6
 73
   -30
  0
VERTEX
  8
12STG26-FABRIC
  5
49D
 10
0.0
 20
0.0
 30
0.0
 70
   128
 71
   -31
 72
   -32
 73
   -33
  0
VERTEX
  8
12STG26-FABRIC
  5
49E
 10
0.0
 20
0.0
 30
0.0
 70
   128
 71
  -111
 72
   -33
 73
   -32
  0
VERTEX
  8
12STG26-FABRIC
  5
49F
 10
0.0
 20
0.0
 30
0.0
 70
   128
 71
   -33
 72
    -6
 73
   -31
  0
VERTEX
  8
12STG26-FABRIC
  5
4A0
 10
0.0
 20
0.0
 30
0.0
 70
   128
 71
   -33
 72
  -111
 73
   -35
  0
VERTEX
  8
12STG26-FABRIC
  5
4A1
 10
0.0
 20
0.0
 30
0.0
 70
   128
 71
  -109
 72
   -35
 73
  -111
  0
VERTEX
  8
12STG26-FABRIC
  5
4A2
 10
0.0
 20
0.0
 30
0.0
 70
   128
 71
   -35
 72
    -6
 73
   -33
  0
VERTEX
  8
12STG26-FABRIC
  5
4A3
 10
0.0
 20
0.0
 30
0.0
 70
   128
 71
   -35
 72
  -109
 73
   -34
  0
VERTEX
  8
12STG26-FABRIC
  5
4A4
 10
0.0
 20
0.0
 30
0.0
 70
   128
 71
  -107
 72
   -34
 73
  -109
  0
VERTEX
  8
12STG26-FABRIC
  5
4A5
 10
0.0
 20
0.0
 30
0.0
 70
   128
 71
   -34
 72
    -6
 73
   -35
  0
VERTEX
  8
12STG26-FABRIC
  5
4A6
 10
0.0
 20
0.0
 30
0.0
 70
   128
 71
   -34
 72
  -107
 73
   -37
  0
VERTEX
  8
12STG26-FABRIC
  5
4A7
 10
0.0
 20
0.0
 30
0.0
 70
   128
 71
  -106
 72
   -37
 73
  -107
  0
VERTEX
  8
12STG26-FABRIC
  5
4A8
 10
0.0
 20
0.0
 30
0.0
 70
   128
 71
   -37
 72
    -6
 73
   -34
  0
VERTEX
  8
12STG26-FABRIC
  5
4A9
 10
0.0
 20
0.0
 30
0.0
 70
   128
 71
   -37
 72
  -106
 73
   -36
  0
VERTEX
  8
12STG26-FABRIC
  5
4AA
 10
0.0
 20
0.0
 30
0.0
 70
   128
 71
  -105
 72
   -36
 73
  -106
  0
VERTEX
  8
12STG26-FABRIC
  5
4AB
 10
0.0
 20
0.0
 30
0.0
 70
   128
 71
   -36
 72
    -6
 73
   -37
  0
VERTEX
  8
12STG26-FABRIC
  5
4AC
 10
0.0
 20
0.0
 30
0.0
 70
   128
 71
   -36
 72
  -105
 73
   -38
  0
VERTEX
  8
12STG26-FABRIC
  5
4AD
 10
0.0
 20
0.0
 30
0.0
 70
   128
 71
  -104
 72
   -38
 73
  -105
  0
VERTEX
  8
12STG26-FABRIC
  5
4AE
 10
0.0
 20
0.0
 30
0.0
 70
   128
 71
   -38
 72
    -6
 73
   -36
  0
VERTEX
  8
12STG26-FABRIC
  5
4AF
 10
0.0
 20
0.0
 30
0.0
 70
   128
 71
   -38
 72
  -104
 73
   -39
  0
VERTEX
  8
12STG26-FABRIC
  5
4B0
 10
0.0
 20
0.0
 30
0.0
 70
   128
 71
  -165
 72
   -39
 73
  -104
  0
VERTEX
  8
12STG26-FABRIC
  5
4B1
 10
0.0
 20
0.0
 30
0.0
 70
   128
 71
   -39
 72
    -6
 73
   -38
  0
VERTEX
  8
12STG26-FABRIC
  5
4B2
 10
0.0
 20
0.0
 30
0.0
 70
   128
 71
   -39
 72
  -165
 73
   -41
  0
VERTEX
  8
12STG26-FABRIC
  5
4B3
 10
0.0
 20
0.0
 30
0.0
 70
   128
 71
   -40
 72
   -41
 73
  -165
  0
VERTEX
  8
12STG26-FABRIC
  5
4B4
 10
0.0
 20
0.0
 30
0.0
 70
   128
 71
   -41
 72
    -6
 73
   -39
  0
VERTEX
  8
12STG26-FABRIC
  5
4B5
 10
0.0
 20
0.0
 30
0.0
 70
   128
 71
   -41
 72
   -40
 73
   -42
  0
VERTEX
  8
12STG26-FABRIC
  5
4B6
 10
0.0
 20
0.0
 30
0.0
 70
   128
 71
    -2
 72
   -42
 73
   -40
  0
VERTEX
  8
12STG26-FABRIC
  5
4B7
 10
0.0
 20
0.0
 30
0.0
 70
   128
 71
   -42
 72
    -6
 73
   -41
  0
VERTEX
  8
12STG26-FABRIC
  5
4B8
 10
0.0
 20
0.0
 30
0.0
 70
   128
 71
    -4
 72
   -43
 73
   -51
  0
VERTEX
  8
12STG26-FABRIC
  5
4B9
 10
0.0
 20
0.0
 30
0.0
 70
   128
 71
   166
 72
   -43
 73
    -4
  0
VERTEX
  8
12STG26-FABRIC
  5
4BA
 10
0.0
 20
0.0
 30
0.0
 70
   128
 71
    -7
 72
   -51
 73
   -50
  0
VERTEX
  8
12STG26-FABRIC
  5
4BB
 10
0.0
 20
0.0
 30
0.0
 70
   128
 71
    -4
 72
   -51
 73
    -7
  0
VERTEX
  8
12STG26-FABRIC
  5
4BC
 10
0.0
 20
0.0
 30
0.0
 70
   128
 71
   -11
 72
   -50
 73
   -53
  0
VERTEX
  8
12STG26-FABRIC
  5
4BD
 10
0.0
 20
0.0
 30
0.0
 70
   128
 71
    -7
 72
   -50
 73
   -11
  0
VERTEX
  8
12STG26-FABRIC
  5
4BE
 10
0.0
 20
0.0
 30
0.0
 70
   128
 71
   -12
 72
   -53
 73
   -55
  0
VERTEX
  8
12STG26-FABRIC
  5
4BF
 10
0.0
 20
0.0
 30
0.0
 70
   128
 71
   -11
 72
   -53
 73
   -12
  0
VERTEX
  8
12STG26-FABRIC
  5
4C0
 10
0.0
 20
0.0
 30
0.0
 70
   128
 71
   -45
 72
   -55
 73
   -44
  0
VERTEX
  8
12STG26-FABRIC
  5
4C1
 10
0.0
 20
0.0
 30
0.0
 70
   128
 71
   -12
 72
   -55
 73
   -45
  0
VERTEX
  8
12STG26-FABRIC
  5
4C2
 10
0.0
 20
0.0
 30
0.0
 70
   128
 71
   -14
 72
   -44
 73
   -58
  0
VERTEX
  8
12STG26-FABRIC
  5
4C3
 10
0.0
 20
0.0
 30
0.0
 70
   128
 71
   -45
 72
   -44
 73
   -14
  0
VERTEX
  8
12STG26-FABRIC
  5
4C4
 10
0.0
 20
0.0
 30
0.0
 70
   128
 71
   -17
 72
   -58
 73
   -60
  0
VERTEX
  8
12STG26-FABRIC
  5
4C5
 10
0.0
 20
0.0
 30
0.0
 70
   128
 71
   -14
 72
   -58
 73
   -17
  0
VERTEX
  8
12STG26-FABRIC
  5
4C6
 10
0.0
 20
0.0
 30
0.0
 70
   128
 71
   -19
 72
   -60
 73
   -61
  0
VERTEX
  8
12STG26-FABRIC
  5
4C7
 10
0.0
 20
0.0
 30
0.0
 70
   128
 71
   -17
 72
   -60
 73
   -19
  0
VERTEX
  8
12STG26-FABRIC
  5
4C8
 10
0.0
 20
0.0
 30
0.0
 70
   128
 71
   -46
 72
   -61
 73
   -48
  0
VERTEX
  8
12STG26-FABRIC
  5
4C9
 10
0.0
 20
0.0
 30
0.0
 70
   128
 71
   -19
 72
   -61
 73
   -46
  0
VERTEX
  8
12STG26-FABRIC
  5
4CA
 10
0.0
 20
0.0
 30
0.0
 70
   128
 71
   -47
 72
   -48
 73
   -64
  0
VERTEX
  8
12STG26-FABRIC
  5
4CB
 10
0.0
 20
0.0
 30
0.0
 70
   128
 71
   -46
 72
   -48
 73
   -47
  0
VERTEX
  8
12STG26-FABRIC
  5
4CC
 10
0.0
 20
0.0
 30
0.0
 70
   128
 71
   -47
 72
   -65
 73
   -21
  0
VERTEX
  8
12STG26-FABRIC
  5
4CD
 10
0.0
 20
0.0
 30
0.0
 70
   128
 71
   -64
 72
   -65
 73
   -47
  0
VERTEX
  8
12STG26-FABRIC
  5
4CE
 10
0.0
 20
0.0
 30
0.0
 70
   128
 71
   -21
 72
   -67
 73
   -24
  0
VERTEX
  8
12STG26-FABRIC
  5
4CF
 10
0.0
 20
0.0
 30
0.0
 70
   128
 71
   -65
 72
   -67
 73
   -21
  0
VERTEX
  8
12STG26-FABRIC
  5
4D0
 10
0.0
 20
0.0
 30
0.0
 70
   128
 71
   -24
 72
   -49
 73
  -115
  0
VERTEX
  8
12STG26-FABRIC
  5
4D1
 10
0.0
 20
0.0
 30
0.0
 70
   128
 71
   -67
 72
   -49
 73
   -24
  0
VERTEX
  8
12STG26-FABRIC
  5
4D2
 10
0.0
 20
0.0
 30
0.0
 70
   128
 71
   -51
 72
   -69
 73
   -52
  0
VERTEX
  8
12STG26-FABRIC
  5
4D3
 10
0.0
 20
0.0
 30
0.0
 70
   128
 71
    43
 72
   -69
 73
   -51
  0
VERTEX
  8
12STG26-FABRIC
  5
4D4
 10
0.0
 20
0.0
 30
0.0
 70
   128
 71
   -50
 72
   -52
 73
   -70
  0
VERTEX
  8
12STG26-FABRIC
  5
4D5
 10
0.0
 20
0.0
 30
0.0
 70
   128
 71
   -51
 72
   -52
 73
   -50
  0
VERTEX
  8
12STG26-FABRIC
  5
4D6
 10
0.0
 20
0.0
 30
0.0
 70
   128
 71
   -53
 72
   -70
 73
   -56
  0
VERTEX
  8
12STG26-FABRIC
  5
4D7
 10
0.0
 20
0.0
 30
0.0
 70
   128
 71
   -50
 72
   -70
 73
   -53
  0
VERTEX
  8
12STG26-FABRIC
  5
4D8
 10
0.0
 20
0.0
 30
0.0
 70
   128
 71
   -55
 72
   -56
 73
   -54
  0
VERTEX
  8
12STG26-FABRIC
  5
4D9
 10
0.0
 20
0.0
 30
0.0
 70
   128
 71
   -53
 72
   -56
 73
   -55
  0
VERTEX
  8
12STG26-FABRIC
  5
4DA
 10
0.0
 20
0.0
 30
0.0
 70
   128
 71
   -44
 72
   -54
 73
   -57
  0
VERTEX
  8
12STG26-FABRIC
  5
4DB
 10
0.0
 20
0.0
 30
0.0
 70
   128
 71
   -55
 72
   -54
 73
   -44
  0
VERTEX
  8
12STG26-FABRIC
  5
4DC
 10
0.0
 20
0.0
 30
0.0
 70
   128
 71
   -58
 72
   -57
 73
   -59
  0
VERTEX
  8
12STG26-FABRIC
  5
4DD
 10
0.0
 20
0.0
 30
0.0
 70
   128
 71
   -44
 72
   -57
 73
   -58
  0
VERTEX
  8
12STG26-FABRIC
  5
4DE
 10
0.0
 20
0.0
 30
0.0
 70
   128
 71
   -60
 72
   -59
 73
   -71
  0
VERTEX
  8
12STG26-FABRIC
  5
4DF
 10
0.0
 20
0.0
 30
0.0
 70
   128
 71
   -58
 72
   -59
 73
   -60
  0
VERTEX
  8
12STG26-FABRIC
  5
4E0
 10
0.0
 20
0.0
 30
0.0
 70
   128
 71
   -61
 72
   -71
 73
   -73
  0
VERTEX
  8
12STG26-FABRIC
  5
4E1
 10
0.0
 20
0.0
 30
0.0
 70
   128
 71
   -60
 72
   -71
 73
   -61
  0
VERTEX
  8
12STG26-FABRIC
  5
4E2
 10
0.0
 20
0.0
 30
0.0
 70
   128
 71
   -61
 72
   -62
 73
   -48
  0
VERTEX
  8
12STG26-FABRIC
  5
4E3
 10
0.0
 20
0.0
 30
0.0
 70
   128
 71
   -73
 72
   -62
 73
   -61
  0
VERTEX
  8
12STG26-FABRIC
  5
4E4
 10
0.0
 20
0.0
 30
0.0
 70
   128
 71
   -48
 72
   -63
 73
   -64
  0
VERTEX
  8
12STG26-FABRIC
  5
4E5
 10
0.0
 20
0.0
 30
0.0
 70
   128
 71
   -62
 72
   -63
 73
   -48
  0
VERTEX
  8
12STG26-FABRIC
  5
4E6
 10
0.0
 20
0.0
 30
0.0
 70
   128
 71
   -64
 72
   -66
 73
   -65
  0
VERTEX
  8
12STG26-FABRIC
  5
4E7
 10
0.0
 20
0.0
 30
0.0
 70
   128
 71
   -63
 72
   -66
 73
   -64
  0
VERTEX
  8
12STG26-FABRIC
  5
4E8
 10
0.0
 20
0.0
 30
0.0
 70
   128
 71
   -65
 72
   -75
 73
   -67
  0
VERTEX
  8
12STG26-FABRIC
  5
4E9
 10
0.0
 20
0.0
 30
0.0
 70
   128
 71
   -66
 72
   -75
 73
   -65
  0
VERTEX
  8
12STG26-FABRIC
  5
4EA
 10
0.0
 20
0.0
 30
0.0
 70
   128
 71
   -49
 72
   -75
 73
  -133
  0
VERTEX
  8
12STG26-FABRIC
  5
4EB
 10
0.0
 20
0.0
 30
0.0
 70
   128
 71
   -67
 72
   -75
 73
   -49
  0
VERTEX
  8
12STG26-FABRIC
  5
4EC
 10
0.0
 20
0.0
 30
0.0
 70
   128
 71
   -52
 72
   -80
 73
   -68
  0
VERTEX
  8
12STG26-FABRIC
  5
4ED
 10
0.0
 20
0.0
 30
0.0
 70
   128
 71
    69
 72
   -80
 73
   -52
  0
VERTEX
  8
12STG26-FABRIC
  5
4EE
 10
0.0
 20
0.0
 30
0.0
 70
   128
 71
   -70
 72
   -68
 73
   -84
  0
VERTEX
  8
12STG26-FABRIC
  5
4EF
 10
0.0
 20
0.0
 30
0.0
 70
   128
 71
   -52
 72
   -68
 73
   -70
  0
VERTEX
  8
12STG26-FABRIC
  5
4F0
 10
0.0
 20
0.0
 30
0.0
 70
   128
 71
   -56
 72
   -84
 73
   -82
  0
VERTEX
  8
12STG26-FABRIC
  5
4F1
 10
0.0
 20
0.0
 30
0.0
 70
   128
 71
   -70
 72
   -84
 73
   -56
  0
VERTEX
  8
12STG26-FABRIC
  5
4F2
 10
0.0
 20
0.0
 30
0.0
 70
   128
 71
   -54
 72
   -82
 73
   -87
  0
VERTEX
  8
12STG26-FABRIC
  5
4F3
 10
0.0
 20
0.0
 30
0.0
 70
   128
 71
   -56
 72
   -82
 73
   -54
  0
VERTEX
  8
12STG26-FABRIC
  5
4F4
 10
0.0
 20
0.0
 30
0.0
 70
   128
 71
   -57
 72
   -87
 73
   -86
  0
VERTEX
  8
12STG26-FABRIC
  5
4F5
 10
0.0
 20
0.0
 30
0.0
 70
   128
 71
   -54
 72
   -87
 73
   -57
  0
VERTEX
  8
12STG26-FABRIC
  5
4F6
 10
0.0
 20
0.0
 30
0.0
 70
   128
 71
   -59
 72
   -86
 73
   -72
  0
VERTEX
  8
12STG26-FABRIC
  5
4F7
 10
0.0
 20
0.0
 30
0.0
 70
   128
 71
   -57
 72
   -86
 73
   -59
  0
VERTEX
  8
12STG26-FABRIC
  5
4F8
 10
0.0
 20
0.0
 30
0.0
 70
   128
 71
   -71
 72
   -72
 73
   -92
  0
VERTEX
  8
12STG26-FABRIC
  5
4F9
 10
0.0
 20
0.0
 30
0.0
 70
   128
 71
   -59
 72
   -72
 73
   -71
  0
VERTEX
  8
12STG26-FABRIC
  5
4FA
 10
0.0
 20
0.0
 30
0.0
 70
   128
 71
   -71
 72
   -91
 73
   -73
  0
VERTEX
  8
12STG26-FABRIC
  5
4FB
 10
0.0
 20
0.0
 30
0.0
 70
   128
 71
   -92
 72
   -91
 73
   -71
  0
VERTEX
  8
12STG26-FABRIC
  5
4FC
 10
0.0
 20
0.0
 30
0.0
 70
   128
 71
   -73
 72
   -96
 73
   -62
  0
VERTEX
  8
12STG26-FABRIC
  5
4FD
 10
0.0
 20
0.0
 30
0.0
 70
   128
 71
   -91
 72
   -96
 73
   -73
  0
VERTEX
  8
12STG26-FABRIC
  5
4FE
 10
0.0
 20
0.0
 30
0.0
 70
   128
 71
   -62
 72
   -74
 73
   -63
  0
VERTEX
  8
12STG26-FABRIC
  5
4FF
 10
0.0
 20
0.0
 30
0.0
 70
   128
 71
   -96
 72
   -74
 73
   -62
  0
VERTEX
  8
12STG26-FABRIC
  5
500
 10
0.0
 20
0.0
 30
0.0
 70
   128
 71
   -63
 72
   -76
 73
   -66
  0
VERTEX
  8
12STG26-FABRIC
  5
501
 10
0.0
 20
0.0
 30
0.0
 70
   128
 71
   -74
 72
   -76
 73
   -63
  0
VERTEX
  8
12STG26-FABRIC
  5
502
 10
0.0
 20
0.0
 30
0.0
 70
   128
 71
   -66
 72
   -77
 73
   -75
  0
VERTEX
  8
12STG26-FABRIC
  5
503
 10
0.0
 20
0.0
 30
0.0
 70
   128
 71
   -76
 72
   -77
 73
   -66
  0
VERTEX
  8
12STG26-FABRIC
  5
504
 10
0.0
 20
0.0
 30
0.0
 70
   128
 71
   -75
 72
   -78
 73
  -133
  0
VERTEX
  8
12STG26-FABRIC
  5
505
 10
0.0
 20
0.0
 30
0.0
 70
   128
 71
   -77
 72
   -78
 73
   -75
  0
VERTEX
  8
12STG26-FABRIC
  5
506
 10
0.0
 20
0.0
 30
0.0
 70
   128
 71
   -68
 72
    81
 73
   -79
  0
VERTEX
  8
12STG26-FABRIC
  5
507
 10
0.0
 20
0.0
 30
0.0
 70
   128
 71
    80
 72
   -81
 73
   -68
  0
VERTEX
  8
12STG26-FABRIC
  5
508
 10
0.0
 20
0.0
 30
0.0
 70
   128
 71
   -84
 72
    79
 73
   -83
  0
VERTEX
  8
12STG26-FABRIC
  5
509
 10
0.0
 20
0.0
 30
0.0
 70
   128
 71
   -68
 72
   -79
 73
   -84
  0
VERTEX
  8
12STG26-FABRIC
  5
50A
 10
0.0
 20
0.0
 30
0.0
 70
   128
 71
   -82
 72
    83
 73
   -85
  0
VERTEX
  8
12STG26-FABRIC
  5
50B
 10
0.0
 20
0.0
 30
0.0
 70
   128
 71
   -84
 72
   -83
 73
   -82
  0
VERTEX
  8
12STG26-FABRIC
  5
50C
 10
0.0
 20
0.0
 30
0.0
 70
   128
 71
   -87
 72
    85
 73
   -88
  0
VERTEX
  8
12STG26-FABRIC
  5
50D
 10
0.0
 20
0.0
 30
0.0
 70
   128
 71
   -82
 72
   -85
 73
   -87
  0
VERTEX
  8
12STG26-FABRIC
  5
50E
 10
0.0
 20
0.0
 30
0.0
 70
   128
 71
   -86
 72
    88
 73
   -89
  0
VERTEX
  8
12STG26-FABRIC
  5
50F
 10
0.0
 20
0.0
 30
0.0
 70
   128
 71
   -87
 72
   -88
 73
   -86
  0
VERTEX
  8
12STG26-FABRIC
  5
510
 10
0.0
 20
0.0
 30
0.0
 70
   128
 71
   -72
 72
    89
 73
   -90
  0
VERTEX
  8
12STG26-FABRIC
  5
511
 10
0.0
 20
0.0
 30
0.0
 70
   128
 71
   -86
 72
   -89
 73
   -72
  0
VERTEX
  8
12STG26-FABRIC
  5
512
 10
0.0
 20
0.0
 30
0.0
 70
   128
 71
   -92
 72
    90
 73
   -94
  0
VERTEX
  8
12STG26-FABRIC
  5
513
 10
0.0
 20
0.0
 30
0.0
 70
   128
 71
   -72
 72
   -90
 73
   -92
  0
VERTEX
  8
12STG26-FABRIC
  5
514
 10
0.0
 20
0.0
 30
0.0
 70
   128
 71
   -92
 72
   -93
 73
   -91
  0
VERTEX
  8
12STG26-FABRIC
  5
515
 10
0.0
 20
0.0
 30
0.0
 70
   128
 71
    94
 72
   -93
 73
   -92
  0
VERTEX
  8
12STG26-FABRIC
  5
516
 10
0.0
 20
0.0
 30
0.0
 70
   128
 71
   -91
 72
   -97
 73
   -96
  0
VERTEX
  8
12STG26-FABRIC
  5
517
 10
0.0
 20
0.0
 30
0.0
 70
   128
 71
    93
 72
   -97
 73
   -91
  0
VERTEX
  8
12STG26-FABRIC
  5
518
 10
0.0
 20
0.0
 30
0.0
 70
   128
 71
   -96
 72
   -95
 73
   -74
  0
VERTEX
  8
12STG26-FABRIC
  5
519
 10
0.0
 20
0.0
 30
0.0
 70
   128
 71
    97
 72
   -95
 73
   -96
  0
VERTEX
  8
12STG26-FABRIC
  5
51A
 10
0.0
 20
0.0
 30
0.0
 70
   128
 71
   -74
 72
   -98
 73
   -76
  0
VERTEX
  8
12STG26-FABRIC
  5
51B
 10
0.0
 20
0.0
 30
0.0
 70
   128
 71
    95
 72
   -98
 73
   -74
  0
VERTEX
  8
12STG26-FABRIC
  5
51C
 10
0.0
 20
0.0
 30
0.0
 70
   128
 71
   -76
 72
   -99
 73
   -77
  0
VERTEX
  8
12STG26-FABRIC
  5
51D
 10
0.0
 20
0.0
 30
0.0
 70
   128
 71
    98
 72
   -99
 73
   -76
  0
VERTEX
  8
12STG26-FABRIC
  5
51E
 10
0.0
 20
0.0
 30
0.0
 70
   128
 71
   -77
 72
  -100
 73
   -78
  0
VERTEX
  8
12STG26-FABRIC
  5
51F
 10
0.0
 20
0.0
 30
0.0
 70
   128
 71
    99
 72
  -100
 73
   -77
  0
VERTEX
  8
12STG26-FABRIC
  5
520
 10
0.0
 20
0.0
 30
0.0
 70
   128
 71
  -102
 72
  -165
 73
  -101
  0
VERTEX
  8
12STG26-FABRIC
  5
521
 10
0.0
 20
0.0
 30
0.0
 70
   128
 71
   102
 72
  -164
 73
  -165
  0
VERTEX
  8
12STG26-FABRIC
  5
522
 10
0.0
 20
0.0
 30
0.0
 70
   128
 71
  -101
 72
  -104
 73
  -103
  0
VERTEX
  8
12STG26-FABRIC
  5
523
 10
0.0
 20
0.0
 30
0.0
 70
   128
 71
  -101
 72
  -165
 73
  -104
  0
VERTEX
  8
12STG26-FABRIC
  5
524
 10
0.0
 20
0.0
 30
0.0
 70
   128
 71
  -103
 72
  -105
 73
  -119
  0
VERTEX
  8
12STG26-FABRIC
  5
525
 10
0.0
 20
0.0
 30
0.0
 70
   128
 71
  -103
 72
  -104
 73
  -105
  0
VERTEX
  8
12STG26-FABRIC
  5
526
 10
0.0
 20
0.0
 30
0.0
 70
   128
 71
  -119
 72
  -106
 73
  -108
  0
VERTEX
  8
12STG26-FABRIC
  5
527
 10
0.0
 20
0.0
 30
0.0
 70
   128
 71
  -119
 72
  -105
 73
  -106
  0
VERTEX
  8
12STG26-FABRIC
  5
528
 10
0.0
 20
0.0
 30
0.0
 70
   128
 71
  -108
 72
  -107
 73
  -121
  0
VERTEX
  8
12STG26-FABRIC
  5
529
 10
0.0
 20
0.0
 30
0.0
 70
   128
 71
  -108
 72
  -106
 73
  -107
  0
VERTEX
  8
12STG26-FABRIC
  5
52A
 10
0.0
 20
0.0
 30
0.0
 70
   128
 71
  -121
 72
  -109
 73
  -123
  0
VERTEX
  8
12STG26-FABRIC
  5
52B
 10
0.0
 20
0.0
 30
0.0
 70
   128
 71
  -121
 72
  -107
 73
  -109
  0
VERTEX
  8
12STG26-FABRIC
  5
52C
 10
0.0
 20
0.0
 30
0.0
 70
   128
 71
  -123
 72
  -111
 73
  -125
  0
VERTEX
  8
12STG26-FABRIC
  5
52D
 10
0.0
 20
0.0
 30
0.0
 70
   128
 71
  -123
 72
  -109
 73
  -111
  0
VERTEX
  8
12STG26-FABRIC
  5
52E
 10
0.0
 20
0.0
 30
0.0
 70
   128
 71
  -125
 72
   -32
 73
  -110
  0
VERTEX
  8
12STG26-FABRIC
  5
52F
 10
0.0
 20
0.0
 30
0.0
 70
   128
 71
  -125
 72
  -111
 73
   -32
  0
VERTEX
  8
12STG26-FABRIC
  5
530
 10
0.0
 20
0.0
 30
0.0
 70
   128
 71
  -110
 72
  -112
 73
  -127
  0
VERTEX
  8
12STG26-FABRIC
  5
531
 10
0.0
 20
0.0
 30
0.0
 70
   128
 71
  -110
 72
   -32
 73
  -112
  0
VERTEX
  8
12STG26-FABRIC
  5
532
 10
0.0
 20
0.0
 30
0.0
 70
   128
 71
  -127
 72
   -28
 73
  -128
  0
VERTEX
  8
12STG26-FABRIC
  5
533
 10
0.0
 20
0.0
 30
0.0
 70
   128
 71
  -127
 72
  -112
 73
   -28
  0
VERTEX
  8
12STG26-FABRIC
  5
534
 10
0.0
 20
0.0
 30
0.0
 70
   128
 71
  -132
 72
   -28
 73
  -113
  0
VERTEX
  8
12STG26-FABRIC
  5
535
 10
0.0
 20
0.0
 30
0.0
 70
   128
 71
  -132
 72
  -128
 73
   -28
  0
VERTEX
  8
12STG26-FABRIC
  5
536
 10
0.0
 20
0.0
 30
0.0
 70
   128
 71
  -114
 72
  -113
 73
  -116
  0
VERTEX
  8
12STG26-FABRIC
  5
537
 10
0.0
 20
0.0
 30
0.0
 70
   128
 71
  -114
 72
  -132
 73
  -113
  0
VERTEX
  8
12STG26-FABRIC
  5
538
 10
0.0
 20
0.0
 30
0.0
 70
   128
 71
   -49
 72
  -116
 73
  -115
  0
VERTEX
  8
12STG26-FABRIC
  5
539
 10
0.0
 20
0.0
 30
0.0
 70
   128
 71
   -49
 72
  -114
 73
  -116
  0
VERTEX
  8
12STG26-FABRIC
  5
53A
 10
0.0
 20
0.0
 30
0.0
 70
   128
 71
  -117
 72
  -101
 73
  -135
  0
VERTEX
  8
12STG26-FABRIC
  5
53B
 10
0.0
 20
0.0
 30
0.0
 70
   128
 71
   117
 72
  -102
 73
  -101
  0
VERTEX
  8
12STG26-FABRIC
  5
53C
 10
0.0
 20
0.0
 30
0.0
 70
   128
 71
  -135
 72
  -103
 73
  -137
  0
VERTEX
  8
12STG26-FABRIC
  5
53D
 10
0.0
 20
0.0
 30
0.0
 70
   128
 71
  -135
 72
  -101
 73
  -103
  0
VERTEX
  8
12STG26-FABRIC
  5
53E
 10
0.0
 20
0.0
 30
0.0
 70
   128
 71
  -137
 72
  -119
 73
  -118
  0
VERTEX
  8
12STG26-FABRIC
  5
53F
 10
0.0
 20
0.0
 30
0.0
 70
   128
 71
  -137
 72
  -103
 73
  -119
  0
VERTEX
  8
12STG26-FABRIC
  5
540
 10
0.0
 20
0.0
 30
0.0
 70
   128
 71
  -118
 72
  -108
 73
  -122
  0
VERTEX
  8
12STG26-FABRIC
  5
541
 10
0.0
 20
0.0
 30
0.0
 70
   128
 71
  -118
 72
  -119
 73
  -108
  0
VERTEX
  8
12STG26-FABRIC
  5
542
 10
0.0
 20
0.0
 30
0.0
 70
   128
 71
  -122
 72
  -121
 73
  -120
  0
VERTEX
  8
12STG26-FABRIC
  5
543
 10
0.0
 20
0.0
 30
0.0
 70
   128
 71
  -122
 72
  -108
 73
  -121
  0
VERTEX
  8
12STG26-FABRIC
  5
544
 10
0.0
 20
0.0
 30
0.0
 70
   128
 71
  -120
 72
  -123
 73
  -142
  0
VERTEX
  8
12STG26-FABRIC
  5
545
 10
0.0
 20
0.0
 30
0.0
 70
   128
 71
  -120
 72
  -121
 73
  -123
  0
VERTEX
  8
12STG26-FABRIC
  5
546
 10
0.0
 20
0.0
 30
0.0
 70
   128
 71
  -142
 72
  -125
 73
  -126
  0
VERTEX
  8
12STG26-FABRIC
  5
547
 10
0.0
 20
0.0
 30
0.0
 70
   128
 71
  -142
 72
  -123
 73
  -125
  0
VERTEX
  8
12STG26-FABRIC
  5
548
 10
0.0
 20
0.0
 30
0.0
 70
   128
 71
  -126
 72
  -110
 73
  -124
  0
VERTEX
  8
12STG26-FABRIC
  5
549
 10
0.0
 20
0.0
 30
0.0
 70
   128
 71
  -126
 72
  -125
 73
  -110
  0
VERTEX
  8
12STG26-FABRIC
  5
54A
 10
0.0
 20
0.0
 30
0.0
 70
   128
 71
  -129
 72
  -110
 73
  -127
  0
VERTEX
  8
12STG26-FABRIC
  5
54B
 10
0.0
 20
0.0
 30
0.0
 70
   128
 71
  -129
 72
  -124
 73
  -110
  0
VERTEX
  8
12STG26-FABRIC
  5
54C
 10
0.0
 20
0.0
 30
0.0
 70
   128
 71
  -146
 72
  -127
 73
  -128
  0
VERTEX
  8
12STG26-FABRIC
  5
54D
 10
0.0
 20
0.0
 30
0.0
 70
   128
 71
  -146
 72
  -129
 73
  -127
  0
VERTEX
  8
12STG26-FABRIC
  5
54E
 10
0.0
 20
0.0
 30
0.0
 70
   128
 71
  -130
 72
  -128
 73
  -132
  0
VERTEX
  8
12STG26-FABRIC
  5
54F
 10
0.0
 20
0.0
 30
0.0
 70
   128
 71
  -130
 72
  -146
 73
  -128
  0
VERTEX
  8
12STG26-FABRIC
  5
550
 10
0.0
 20
0.0
 30
0.0
 70
   128
 71
  -131
 72
  -132
 73
  -114
  0
VERTEX
  8
12STG26-FABRIC
  5
551
 10
0.0
 20
0.0
 30
0.0
 70
   128
 71
  -131
 72
  -130
 73
  -132
  0
VERTEX
  8
12STG26-FABRIC
  5
552
 10
0.0
 20
0.0
 30
0.0
 70
   128
 71
  -131
 72
   -49
 73
  -133
  0
VERTEX
  8
12STG26-FABRIC
  5
553
 10
0.0
 20
0.0
 30
0.0
 70
   128
 71
  -131
 72
  -114
 73
   -49
  0
VERTEX
  8
12STG26-FABRIC
  5
554
 10
0.0
 20
0.0
 30
0.0
 70
   128
 71
  -149
 72
  -135
 73
  -134
  0
VERTEX
  8
12STG26-FABRIC
  5
555
 10
0.0
 20
0.0
 30
0.0
 70
   128
 71
   149
 72
  -117
 73
  -135
  0
VERTEX
  8
12STG26-FABRIC
  5
556
 10
0.0
 20
0.0
 30
0.0
 70
   128
 71
  -134
 72
  -137
 73
  -136
  0
VERTEX
  8
12STG26-FABRIC
  5
557
 10
0.0
 20
0.0
 30
0.0
 70
   128
 71
  -134
 72
  -135
 73
  -137
  0
VERTEX
  8
12STG26-FABRIC
  5
558
 10
0.0
 20
0.0
 30
0.0
 70
   128
 71
  -136
 72
  -118
 73
  -139
  0
VERTEX
  8
12STG26-FABRIC
  5
559
 10
0.0
 20
0.0
 30
0.0
 70
   128
 71
  -136
 72
  -137
 73
  -118
  0
VERTEX
  8
12STG26-FABRIC
  5
55A
 10
0.0
 20
0.0
 30
0.0
 70
   128
 71
  -139
 72
  -122
 73
  -138
  0
VERTEX
  8
12STG26-FABRIC
  5
55B
 10
0.0
 20
0.0
 30
0.0
 70
   128
 71
  -139
 72
  -118
 73
  -122
  0
VERTEX
  8
12STG26-FABRIC
  5
55C
 10
0.0
 20
0.0
 30
0.0
 70
   128
 71
  -138
 72
  -120
 73
  -140
  0
VERTEX
  8
12STG26-FABRIC
  5
55D
 10
0.0
 20
0.0
 30
0.0
 70
   128
 71
  -138
 72
  -122
 73
  -120
  0
VERTEX
  8
12STG26-FABRIC
  5
55E
 10
0.0
 20
0.0
 30
0.0
 70
   128
 71
  -140
 72
  -142
 73
  -141
  0
VERTEX
  8
12STG26-FABRIC
  5
55F
 10
0.0
 20
0.0
 30
0.0
 70
   128
 71
  -140
 72
  -120
 73
  -142
  0
VERTEX
  8
12STG26-FABRIC
  5
560
 10
0.0
 20
0.0
 30
0.0
 70
   128
 71
  -141
 72
  -126
 73
  -159
  0
VERTEX
  8
12STG26-FABRIC
  5
561
 10
0.0
 20
0.0
 30
0.0
 70
   128
 71
  -141
 72
  -142
 73
  -126
  0
VERTEX
  8
12STG26-FABRIC
  5
562
 10
0.0
 20
0.0
 30
0.0
 70
   128
 71
  -144
 72
  -126
 73
  -124
  0
VERTEX
  8
12STG26-FABRIC
  5
563
 10
0.0
 20
0.0
 30
0.0
 70
   128
 71
  -144
 72
  -159
 73
  -126
  0
VERTEX
  8
12STG26-FABRIC
  5
564
 10
0.0
 20
0.0
 30
0.0
 70
   128
 71
  -143
 72
  -124
 73
  -129
  0
VERTEX
  8
12STG26-FABRIC
  5
565
 10
0.0
 20
0.0
 30
0.0
 70
   128
 71
  -143
 72
  -144
 73
  -124
  0
VERTEX
  8
12STG26-FABRIC
  5
566
 10
0.0
 20
0.0
 30
0.0
 70
   128
 71
  -145
 72
  -129
 73
  -146
  0
VERTEX
  8
12STG26-FABRIC
  5
567
 10
0.0
 20
0.0
 30
0.0
 70
   128
 71
  -145
 72
  -143
 73
  -129
  0
VERTEX
  8
12STG26-FABRIC
  5
568
 10
0.0
 20
0.0
 30
0.0
 70
   128
 71
  -147
 72
  -146
 73
  -130
  0
VERTEX
  8
12STG26-FABRIC
  5
569
 10
0.0
 20
0.0
 30
0.0
 70
   128
 71
  -147
 72
  -145
 73
  -146
  0
VERTEX
  8
12STG26-FABRIC
  5
56A
 10
0.0
 20
0.0
 30
0.0
 70
   128
 71
  -148
 72
  -130
 73
  -131
  0
VERTEX
  8
12STG26-FABRIC
  5
56B
 10
0.0
 20
0.0
 30
0.0
 70
   128
 71
  -148
 72
  -147
 73
  -130
  0
VERTEX
  8
12STG26-FABRIC
  5
56C
 10
0.0
 20
0.0
 30
0.0
 70
   128
 71
   -78
 72
  -131
 73
  -133
  0
VERTEX
  8
12STG26-FABRIC
  5
56D
 10
0.0
 20
0.0
 30
0.0
 70
   128
 71
   -78
 72
  -148
 73
  -131
  0
VERTEX
  8
12STG26-FABRIC
  5
56E
 10
0.0
 20
0.0
 30
0.0
 70
   128
 71
  -150
 72
  -134
 73
   151
  0
VERTEX
  8
12STG26-FABRIC
  5
56F
 10
0.0
 20
0.0
 30
0.0
 70
   128
 71
   150
 72
  -149
 73
  -134
  0
VERTEX
  8
12STG26-FABRIC
  5
570
 10
0.0
 20
0.0
 30
0.0
 70
   128
 71
  -151
 72
  -136
 73
   152
  0
VERTEX
  8
12STG26-FABRIC
  5
571
 10
0.0
 20
0.0
 30
0.0
 70
   128
 71
  -151
 72
  -134
 73
  -136
  0
VERTEX
  8
12STG26-FABRIC
  5
572
 10
0.0
 20
0.0
 30
0.0
 70
   128
 71
  -152
 72
  -139
 73
   153
  0
VERTEX
  8
12STG26-FABRIC
  5
573
 10
0.0
 20
0.0
 30
0.0
 70
   128
 71
  -152
 72
  -136
 73
  -139
  0
VERTEX
  8
12STG26-FABRIC
  5
574
 10
0.0
 20
0.0
 30
0.0
 70
   128
 71
  -153
 72
  -138
 73
   154
  0
VERTEX
  8
12STG26-FABRIC
  5
575
 10
0.0
 20
0.0
 30
0.0
 70
   128
 71
  -153
 72
  -139
 73
  -138
  0
VERTEX
  8
12STG26-FABRIC
  5
576
 10
0.0
 20
0.0
 30
0.0
 70
   128
 71
  -154
 72
  -140
 73
   155
  0
VERTEX
  8
12STG26-FABRIC
  5
577
 10
0.0
 20
0.0
 30
0.0
 70
   128
 71
  -154
 72
  -138
 73
  -140
  0
VERTEX
  8
12STG26-FABRIC
  5
578
 10
0.0
 20
0.0
 30
0.0
 70
   128
 71
  -155
 72
  -141
 73
   157
  0
VERTEX
  8
12STG26-FABRIC
  5
579
 10
0.0
 20
0.0
 30
0.0
 70
   128
 71
  -155
 72
  -140
 73
  -141
  0
VERTEX
  8
12STG26-FABRIC
  5
57A
 10
0.0
 20
0.0
 30
0.0
 70
   128
 71
  -157
 72
  -159
 73
   156
  0
VERTEX
  8
12STG26-FABRIC
  5
57B
 10
0.0
 20
0.0
 30
0.0
 70
   128
 71
  -157
 72
  -141
 73
  -159
  0
VERTEX
  8
12STG26-FABRIC
  5
57C
 10
0.0
 20
0.0
 30
0.0
 70
   128
 71
  -158
 72
  -159
 73
  -144
  0
VERTEX
  8
12STG26-FABRIC
  5
57D
 10
0.0
 20
0.0
 30
0.0
 70
   128
 71
   158
 72
  -156
 73
  -159
  0
VERTEX
  8
12STG26-FABRIC
  5
57E
 10
0.0
 20
0.0
 30
0.0
 70
   128
 71
  -160
 72
  -144
 73
  -143
  0
VERTEX
  8
12STG26-FABRIC
  5
57F
 10
0.0
 20
0.0
 30
0.0
 70
   128
 71
   160
 72
  -158
 73
  -144
  0
VERTEX
  8
12STG26-FABRIC
  5
580
 10
0.0
 20
0.0
 30
0.0
 70
   128
 71
  -161
 72
  -143
 73
  -145
  0
VERTEX
  8
12STG26-FABRIC
  5
581
 10
0.0
 20
0.0
 30
0.0
 70
   128
 71
   161
 72
  -160
 73
  -143
  0
VERTEX
  8
12STG26-FABRIC
  5
582
 10
0.0
 20
0.0
 30
0.0
 70
   128
 71
  -162
 72
  -145
 73
  -147
  0
VERTEX
  8
12STG26-FABRIC
  5
583
 10
0.0
 20
0.0
 30
0.0
 70
   128
 71
   162
 72
  -161
 73
  -145
  0
VERTEX
  8
12STG26-FABRIC
  5
584
 10
0.0
 20
0.0
 30
0.0
 70
   128
 71
  -163
 72
  -147
 73
  -148
  0
VERTEX
  8
12STG26-FABRIC
  5
585
 10
0.0
 20
0.0
 30
0.0
 70
   128
 71
   163
 72
  -162
 73
  -147
  0
VERTEX
  8
12STG26-FABRIC
  5
586
 10
0.0
 20
0.0
 30
0.0
 70
   128
 71
  -100
 72
  -148
 73
   -78
  0
VERTEX
  8
12STG26-FABRIC
  5
587
 10
0.0
 20
0.0
 30
0.0
 70
   128
 71
   100
 72
  -163
 73
  -148
  0
VERTEX
  8
12STG26-FABRIC
  5
588
 10
0.0
 20
0.0
 30
0.0
 70
   128
 71
  -166
 72
  -165
 73
   164
  0
VERTEX
  8
12STG26-FABRIC
  5
589
 10
0.0
 20
0.0
 30
0.0
 70
   128
 71
    -4
 72
  -165
 73
  -166
  0
SEQEND
  8
12STG26-FABRIC
  5
58A
  0
POLYLINE
  8
12STG26-FABRIC
  5
5FD
 66
     1
 10
0.0
 20
0.0
 30
0.0
 70
    64
 71
    51
 72
    58
1001
AVE_ENTITY_MATERIAL
1002
{
1000

1002
{
1071
        0
1070
     0
1070
     0
1002
{
1070
     0
1070
     0
1070
     0
1040
0.0
1002
}
1070
     0
1070
     0
1002
{
1002
}
1002
}
1002
{
1002
}
1002
{
1002
}
1011
0.0
1021
0.0
1031
0.0
1011
1.0
1021
0.0
1031
0.0
1011
0.0
1021
1.0
1031
0.0
1011
0.0
1021
0.0
1031
1.0
1002
}
1001
AVE_FINISH
1002
{
1070
     0
1005
66C
1002
}
  0
VERTEX
  8
12STG26-FABRIC
  5
5FE
 10
16.606
 20
-1.106
 30
18.814
 70
   192
  0
VERTEX
  8
12STG26-FABRIC
  5
5FF
 10
16.985
 20
-1.57
 30
18.433
 70
   192
  0
VERTEX
  8
12STG26-FABRIC
  5
600
 10
17.048
 20
0.462
 30
18.814
 70
   192
  0
VERTEX
  8
12STG26-FABRIC
  5
601
 10
17.369
 20
2.112
 30
18.814
 70
   192
  0
VERTEX
  8
12STG26-FABRIC
  5
602
 10
17.616
 20
3.949
 30
18.814
 70
   192
  0
VERTEX
  8
12STG26-FABRIC
  5
603
 10
17.927
 20
3.824
 30
18.433
 70
   192
  0
VERTEX
  8
12STG26-FABRIC
  5
604
 10
17.669
 20
7.339
 30
18.814
 70
   192
  0
VERTEX
  8
12STG26-FABRIC
  5
605
 10
17.696
 20
5.814
 30
18.814
 70
   192
  0
VERTEX
  8
12STG26-FABRIC
  5
606
 10
17.97
 20
7.283
 30
18.433
 70
   192
  0
VERTEX
  8
12STG26-FABRIC
  5
607
 10
17.711
 20
8.432
 30
18.814
 70
   192
  0
VERTEX
  8
12STG26-FABRIC
  5
608
 10
16.918
 20
-1.562
 30
17.863
 70
   192
  0
VERTEX
  8
12STG26-FABRIC
  5
609
 10
17.4
 20
0.306
 30
17.863
 70
   192
  0
VERTEX
  8
12STG26-FABRIC
  5
60A
 10
17.4
 20
0.306
 30
18.433
 70
   192
  0
VERTEX
  8
12STG26-FABRIC
  5
60B
 10
17.686
 20
1.858
 30
17.863
 70
   192
  0
VERTEX
  8
12STG26-FABRIC
  5
60C
 10
17.686
 20
1.858
 30
18.433
 70
   192
  0
VERTEX
  8
12STG26-FABRIC
  5
60D
 10
17.927
 20
3.824
 30
17.863
 70
   192
  0
VERTEX
  8
12STG26-FABRIC
  5
60E
 10
17.998
 20
5.748
 30
18.433
 70
   192
  0
VERTEX
  8
12STG26-FABRIC
  5
60F
 10
17.998
 20
5.748
 30
17.863
 70
   192
  0
VERTEX
  8
12STG26-FABRIC
  5
610
 10
17.998
 20
7.283
 30
17.863
 70
   192
  0
VERTEX
  8
12STG26-FABRIC
  5
611
 10
17.4
 20
16.559
 30
18.433
 70
   192
  0
VERTEX
  8
12STG26-FABRIC
  5
612
 10
16.606
 20
17.971
 30
18.814
 70
   192
  0
VERTEX
  8
12STG26-FABRIC
  5
613
 10
16.985
 20
18.434
 30
18.433
 70
   192
  0
VERTEX
  8
12STG26-FABRIC
  5
614
 10
17.369
 20
14.753
 30
18.814
 70
   192
  0
VERTEX
  8
12STG26-FABRIC
  5
615
 10
17.048
 20
16.403
 30
18.814
 70
   192
  0
VERTEX
  8
12STG26-FABRIC
  5
616
 10
17.696
 20
11.051
 30
18.814
 70
   192
  0
VERTEX
  8
12STG26-FABRIC
  5
617
 10
17.616
 20
12.916
 30
18.814
 70
   192
  0
VERTEX
  8
12STG26-FABRIC
  5
618
 10
17.669
 20
9.526
 30
18.814
 70
   192
  0
VERTEX
  8
12STG26-FABRIC
  5
619
 10
17.984
 20
8.432
 30
18.433
 70
   192
  0
VERTEX
  8
12STG26-FABRIC
  5
61A
 10
17.4
 20
16.559
 30
17.863
 70
   192
  0
VERTEX
  8
12STG26-FABRIC
  5
61B
 10
16.918
 20
18.427
 30
17.863
 70
   192
  0
VERTEX
  8
12STG26-FABRIC
  5
61C
 10
17.686
 20
15.007
 30
17.863
 70
   192
  0
VERTEX
  8
12STG26-FABRIC
  5
61D
 10
17.927
 20
13.04
 30
18.433
 70
   192
  0
VERTEX
  8
12STG26-FABRIC
  5
61E
 10
17.686
 20
15.007
 30
18.433
 70
   192
  0
VERTEX
  8
12STG26-FABRIC
  5
61F
 10
17.998
 20
11.117
 30
17.863
 70
   192
  0
VERTEX
  8
12STG26-FABRIC
  5
620
 10
17.927
 20
13.04
 30
17.863
 70
   192
  0
VERTEX
  8
12STG26-FABRIC
  5
621
 10
17.97
 20
9.582
 30
18.433
 70
   192
  0
VERTEX
  8
12STG26-FABRIC
  5
622
 10
17.998
 20
11.117
 30
18.433
 70
   192
  0
VERTEX
  8
12STG26-FABRIC
  5
623
 10
18.012
 20
8.432
 30
17.863
 70
   192
  0
VERTEX
  8
12STG26-FABRIC
  5
624
 10
17.998
 20
9.582
 30
17.863
 70
   192
  0
VERTEX
  8
12STG26-FABRIC
  5
625
 10
2.626
 20
13.54
 30
18.346
 70
   192
  0
VERTEX
  8
12STG26-FABRIC
  5
626
 10
2.898
 20
14.855
 30
18.143
 70
   192
  0
VERTEX
  8
12STG26-FABRIC
  5
627
 10
2.626
 20
13.54
 30
19.111
 70
   192
  0
VERTEX
  8
12STG26-FABRIC
  5
628
 10
2.898
 20
14.855
 30
18.908
 70
   192
  0
VERTEX
  8
12STG26-FABRIC
  5
629
 10
2.351
 20
11.147
 30
18.433
 70
   192
  0
VERTEX
  8
12STG26-FABRIC
  5
62A
 10
2.351
 20
11.147
 30
19.199
 70
   192
  0
VERTEX
  8
12STG26-FABRIC
  5
62B
 10
2.351
 20
5.674
 30
18.433
 70
   192
  0
VERTEX
  8
12STG26-FABRIC
  5
62C
 10
2.351
 20
5.674
 30
19.199
 70
   192
  0
VERTEX
  8
12STG26-FABRIC
  5
62D
 10
2.626
 20
3.325
 30
19.111
 70
   192
  0
VERTEX
  8
12STG26-FABRIC
  5
62E
 10
2.898
 20
1.998
 30
18.156
 70
   192
  0
VERTEX
  8
12STG26-FABRIC
  5
62F
 10
2.626
 20
3.325
 30
18.346
 70
   192
  0
VERTEX
  8
12STG26-FABRIC
  5
630
 10
2.898
 20
1.998
 30
18.922
 70
   192
  0
VERTEX
  8
12STG26-FABRIC
  5
631
 10
0.0
 20
0.0
 30
0.0
 70
   128
 71
    -1
 72
    13
 73
     3
  0
VERTEX
  8
12STG26-FABRIC
  5
632
 10
0.0
 20
0.0
 30
0.0
 70
   128
 71
     2
 72
   -13
 73
     1
  0
VERTEX
  8
12STG26-FABRIC
  5
633
 10
0.0
 20
0.0
 30
0.0
 70
   128
 71
    -3
 72
    15
 73
     4
  0
VERTEX
  8
12STG26-FABRIC
  5
634
 10
0.0
 20
0.0
 30
0.0
 70
   128
 71
    13
 72
   -15
 73
     3
  0
VERTEX
  8
12STG26-FABRIC
  5
635
 10
0.0
 20
0.0
 30
0.0
 70
   128
 71
    -4
 72
     6
 73
     5
  0
VERTEX
  8
12STG26-FABRIC
  5
636
 10
0.0
 20
0.0
 30
0.0
 70
   128
 71
    15
 72
    -6
 73
     4
  0
VERTEX
  8
12STG26-FABRIC
  5
637
 10
0.0
 20
0.0
 30
0.0
 70
   128
 71
    -5
 72
    17
 73
     8
  0
VERTEX
  8
12STG26-FABRIC
  5
638
 10
0.0
 20
0.0
 30
0.0
 70
   128
 71
     6
 72
   -17
 73
     5
  0
VERTEX
  8
12STG26-FABRIC
  5
639
 10
0.0
 20
0.0
 30
0.0
 70
   128
 71
    -8
 72
     9
 73
     7
  0
VERTEX
  8
12STG26-FABRIC
  5
63A
 10
0.0
 20
0.0
 30
0.0
 70
   128
 71
    17
 72
    -9
 73
     8
  0
VERTEX
  8
12STG26-FABRIC
  5
63B
 10
0.0
 20
0.0
 30
0.0
 70
   128
 71
    -7
 72
    28
 73
    10
  0
VERTEX
  8
12STG26-FABRIC
  5
63C
 10
0.0
 20
0.0
 30
0.0
 70
   128
 71
     9
 72
   -28
 73
     7
  0
VERTEX
  8
12STG26-FABRIC
  5
63D
 10
0.0
 20
0.0
 30
0.0
 70
   128
 71
    -2
 72
    12
 73
    13
  0
VERTEX
  8
12STG26-FABRIC
  5
63E
 10
0.0
 20
0.0
 30
0.0
 70
   128
 71
    11
 72
   -12
 73
     2
  0
VERTEX
  8
12STG26-FABRIC
  5
63F
 10
0.0
 20
0.0
 30
0.0
 70
   128
 71
    15
 72
   -13
 73
    14
  0
VERTEX
  8
12STG26-FABRIC
  5
640
 10
0.0
 20
0.0
 30
0.0
 70
   128
 71
    12
 72
   -14
 73
    13
  0
VERTEX
  8
12STG26-FABRIC
  5
641
 10
0.0
 20
0.0
 30
0.0
 70
   128
 71
     6
 72
   -15
 73
    16
  0
VERTEX
  8
12STG26-FABRIC
  5
642
 10
0.0
 20
0.0
 30
0.0
 70
   128
 71
    14
 72
   -16
 73
    15
  0
VERTEX
  8
12STG26-FABRIC
  5
643
 10
0.0
 20
0.0
 30
0.0
 70
   128
 71
    17
 72
    -6
 73
    18
  0
VERTEX
  8
12STG26-FABRIC
  5
644
 10
0.0
 20
0.0
 30
0.0
 70
   128
 71
    16
 72
   -18
 73
     6
  0
VERTEX
  8
12STG26-FABRIC
  5
645
 10
0.0
 20
0.0
 30
0.0
 70
   128
 71
   -17
 72
    19
 73
     9
  0
VERTEX
  8
12STG26-FABRIC
  5
646
 10
0.0
 20
0.0
 30
0.0
 70
   128
 71
    18
 72
   -19
 73
    17
  0
VERTEX
  8
12STG26-FABRIC
  5
647
 10
0.0
 20
0.0
 30
0.0
 70
   128
 71
   -28
 72
    19
 73
    38
  0
VERTEX
  8
12STG26-FABRIC
  5
648
 10
0.0
 20
0.0
 30
0.0
 70
   128
 71
     9
 72
   -19
 73
    28
  0
VERTEX
  8
12STG26-FABRIC
  5
649
 10
0.0
 20
0.0
 30
0.0
 70
   128
 71
   -20
 72
    21
 73
    24
  0
VERTEX
  8
12STG26-FABRIC
  5
64A
 10
0.0
 20
0.0
 30
0.0
 70
   128
 71
    20
 72
    22
 73
   -21
  0
VERTEX
  8
12STG26-FABRIC
  5
64B
 10
0.0
 20
0.0
 30
0.0
 70
   128
 71
   -33
 72
    24
 73
    23
  0
VERTEX
  8
12STG26-FABRIC
  5
64C
 10
0.0
 20
0.0
 30
0.0
 70
   128
 71
    33
 72
    20
 73
   -24
  0
VERTEX
  8
12STG26-FABRIC
  5
64D
 10
0.0
 20
0.0
 30
0.0
 70
   128
 71
   -32
 72
    23
 73
    26
  0
VERTEX
  8
12STG26-FABRIC
  5
64E
 10
0.0
 20
0.0
 30
0.0
 70
   128
 71
    32
 72
    33
 73
   -23
  0
VERTEX
  8
12STG26-FABRIC
  5
64F
 10
0.0
 20
0.0
 30
0.0
 70
   128
 71
   -37
 72
    26
 73
    25
  0
VERTEX
  8
12STG26-FABRIC
  5
650
 10
0.0
 20
0.0
 30
0.0
 70
   128
 71
    37
 72
    32
 73
   -26
  0
VERTEX
  8
12STG26-FABRIC
  5
651
 10
0.0
 20
0.0
 30
0.0
 70
   128
 71
   -36
 72
    25
 73
    27
  0
VERTEX
  8
12STG26-FABRIC
  5
652
 10
0.0
 20
0.0
 30
0.0
 70
   128
 71
    36
 72
    37
 73
   -25
  0
VERTEX
  8
12STG26-FABRIC
  5
653
 10
0.0
 20
0.0
 30
0.0
 70
   128
 71
   -28
 72
    27
 73
    10
  0
VERTEX
  8
12STG26-FABRIC
  5
654
 10
0.0
 20
0.0
 30
0.0
 70
   128
 71
    28
 72
    36
 73
   -27
  0
VERTEX
  8
12STG26-FABRIC
  5
655
 10
0.0
 20
0.0
 30
0.0
 70
   128
 71
   -29
 72
    22
 73
    20
  0
VERTEX
  8
12STG26-FABRIC
  5
656
 10
0.0
 20
0.0
 30
0.0
 70
   128
 71
    29
 72
    30
 73
   -22
  0
VERTEX
  8
12STG26-FABRIC
  5
657
 10
0.0
 20
0.0
 30
0.0
 70
   128
 71
    20
 72
    33
 73
   -31
  0
VERTEX
  8
12STG26-FABRIC
  5
658
 10
0.0
 20
0.0
 30
0.0
 70
   128
 71
    31
 72
    29
 73
   -20
  0
VERTEX
  8
12STG26-FABRIC
  5
659
 10
0.0
 20
0.0
 30
0.0
 70
   128
 71
    33
 72
    32
 73
   -35
  0
VERTEX
  8
12STG26-FABRIC
  5
65A
 10
0.0
 20
0.0
 30
0.0
 70
   128
 71
    35
 72
    31
 73
   -33
  0
VERTEX
  8
12STG26-FABRIC
  5
65B
 10
0.0
 20
0.0
 30
0.0
 70
   128
 71
    32
 72
    37
 73
   -34
  0
VERTEX
  8
12STG26-FABRIC
  5
65C
 10
0.0
 20
0.0
 30
0.0
 70
   128
 71
    34
 72
    35
 73
   -32
  0
VERTEX
  8
12STG26-FABRIC
  5
65D
 10
0.0
 20
0.0
 30
0.0
 70
   128
 71
   -39
 72
    37
 73
    36
  0
VERTEX
  8
12STG26-FABRIC
  5
65E
 10
0.0
 20
0.0
 30
0.0
 70
   128
 71
    39
 72
    34
 73
   -37
  0
VERTEX
  8
12STG26-FABRIC
  5
65F
 10
0.0
 20
0.0
 30
0.0
 70
   128
 71
   -39
 72
    28
 73
    38
  0
VERTEX
  8
12STG26-FABRIC
  5
660
 10
0.0
 20
0.0
 30
0.0
 70
   128
 71
    39
 72
    36
 73
   -28
  0
VERTEX
  8
12STG26-FABRIC
  5
661
 10
0.0
 20
0.0
 30
0.0
 70
   128
 71
   -41
 72
    42
 73
    40
  0
VERTEX
  8
12STG26-FABRIC
  5
662
 10
0.0
 20
0.0
 30
0.0
 70
   128
 71
    43
 72
   -42
 73
    41
  0
VERTEX
  8
12STG26-FABRIC
  5
663
 10
0.0
 20
0.0
 30
0.0
 70
   128
 71
   -40
 72
    45
 73
    44
  0
VERTEX
  8
12STG26-FABRIC
  5
664
 10
0.0
 20
0.0
 30
0.0
 70
   128
 71
    42
 72
   -45
 73
    40
  0
VERTEX
  8
12STG26-FABRIC
  5
665
 10
0.0
 20
0.0
 30
0.0
 70
   128
 71
    44
 72
   -45
 73
    46
  0
VERTEX
  8
12STG26-FABRIC
  5
666
 10
0.0
 20
0.0
 30
0.0
 70
   128
 71
    47
 72
   -46
 73
    45
  0
VERTEX
  8
12STG26-FABRIC
  5
667
 10
0.0
 20
0.0
 30
0.0
 70
   128
 71
   -46
 72
    48
 73
    50
  0
VERTEX
  8
12STG26-FABRIC
  5
668
 10
0.0
 20
0.0
 30
0.0
 70
   128
 71
    47
 72
   -48
 73
    46
  0
VERTEX
  8
12STG26-FABRIC
  5
669
 10
0.0
 20
0.0
 30
0.0
 70
   128
 71
   -50
 72
    51
 73
    49
  0
VERTEX
  8
12STG26-FABRIC
  5
66A
 10
0.0
 20
0.0
 30
0.0
 70
   128
 71
    48
 72
   -51
 73
    50
  0
SEQEND
  8
12STG26-FABRIC
  5
66B
  0
POLYLINE
  8
12STG26-FABRIC
  5
685
 66
     1
 10
0.0
 20
0.0
 30
0.0
 70
    64
 71
    48
 72
    56
1001
AVE_ENTITY_MATERIAL
1002
{
1000

1002
{
1071
        0
1070
     0
1070
     0
1002
{
1070
     0
1070
     0
1070
     0
1040
0.0
1002
}
1070
     0
1070
     0
1002
{
1002
}
1002
}
1002
{
1002
}
1002
{
1002
}
1011
0.0
1021
0.0
1031
0.0
1011
1.0
1021
0.0
1031
0.0
1011
0.0
1021
1.0
1031
0.0
1011
0.0
1021
0.0
1031
1.0
1002
}
1001
AVE_FINISH
1002
{
1070
     0
1005
6EF
1002
}
  0
VERTEX
  8
12STG26-FABRIC
  5
686
 10
5.113
 20
0.232
 30
18.814
 70
   192
  0
VERTEX
  8
12STG26-FABRIC
  5
687
 10
3.173
 20
0.485
 30
18.814
 70
   192
  0
VERTEX
  8
12STG26-FABRIC
  5
688
 10
9.294
 20
-0.34
 30
18.814
 70
   192
  0
VERTEX
  8
12STG26-FABRIC
  5
689
 10
7.55
 20
-0.094
 30
18.814
 70
   192
  0
VERTEX
  8
12STG26-FABRIC
  5
68A
 10
11.041
 20
-0.601
 30
18.814
 70
   192
  0
VERTEX
  8
12STG26-FABRIC
  5
68B
 10
9.595
 20
-0.802
 30
18.433
 70
   192
  0
VERTEX
  8
12STG26-FABRIC
  5
68C
 10
12.996
 20
-0.88
 30
18.814
 70
   192
  0
VERTEX
  8
12STG26-FABRIC
  5
68D
 10
16.606
 20
-1.106
 30
18.814
 70
   192
  0
VERTEX
  8
12STG26-FABRIC
  5
68E
 10
14.98
 20
-1.099
 30
18.814
 70
   192
  0
VERTEX
  8
12STG26-FABRIC
  5
68F
 10
3.173
 20
0.107
 30
18.433
 70
   192
  0
VERTEX
  8
12STG26-FABRIC
  5
690
 10
3.173
 20
0.107
 30
17.863
 70
   192
  0
VERTEX
  8
12STG26-FABRIC
  5
691
 10
7.85
 20
-0.541
 30
17.863
 70
   192
  0
VERTEX
  8
12STG26-FABRIC
  5
692
 10
5.514
 20
-0.211
 30
18.433
 70
   192
  0
VERTEX
  8
12STG26-FABRIC
  5
693
 10
5.514
 20
-0.211
 30
17.863
 70
   192
  0
VERTEX
  8
12STG26-FABRIC
  5
694
 10
7.85
 20
-0.541
 30
18.433
 70
   192
  0
VERTEX
  8
12STG26-FABRIC
  5
695
 10
9.595
 20
-0.802
 30
17.863
 70
   192
  0
VERTEX
  8
12STG26-FABRIC
  5
696
 10
11.342
 20
-1.076
 30
17.863
 70
   192
  0
VERTEX
  8
12STG26-FABRIC
  5
697
 10
11.342
 20
-1.076
 30
18.433
 70
   192
  0
VERTEX
  8
12STG26-FABRIC
  5
698
 10
13.296
 20
-1.37
 30
18.433
 70
   192
  0
VERTEX
  8
12STG26-FABRIC
  5
699
 10
13.296
 20
-1.37
 30
17.863
 70
   192
  0
VERTEX
  8
12STG26-FABRIC
  5
69A
 10
15.379
 20
-1.608
 30
17.863
 70
   192
  0
VERTEX
  8
12STG26-FABRIC
  5
69B
 10
16.985
 20
-1.57
 30
18.433
 70
   192
  0
VERTEX
  8
12STG26-FABRIC
  5
69C
 10
15.379
 20
-1.608
 30
18.433
 70
   192
  0
VERTEX
  8
12STG26-FABRIC
  5
69D
 10
16.918
 20
-1.562
 30
17.863
 70
   192
  0
VERTEX
  8
12STG26-FABRIC
  5
69E
 10
5.113
 20
16.633
 30
18.814
 70
   192
  0
VERTEX
  8
12STG26-FABRIC
  5
69F
 10
3.173
 20
16.38
 30
18.814
 70
   192
  0
VERTEX
  8
12STG26-FABRIC
  5
6A0
 10
9.294
 20
17.204
 30
18.814
 70
   192
  0
VERTEX
  8
12STG26-FABRIC
  5
6A1
 10
7.55
 20
16.958
 30
18.814
 70
   192
  0
VERTEX
  8
12STG26-FABRIC
  5
6A2
 10
11.342
 20
17.941
 30
18.433
 70
   192
  0
VERTEX
  8
12STG26-FABRIC
  5
6A3
 10
12.996
 20
17.744
 30
18.814
 70
   192
  0
VERTEX
  8
12STG26-FABRIC
  5
6A4
 10
11.041
 20
17.466
 30
18.814
 70
   192
  0
VERTEX
  8
12STG26-FABRIC
  5
6A5
 10
14.98
 20
17.964
 30
18.814
 70
   192
  0
VERTEX
  8
12STG26-FABRIC
  5
6A6
 10
16.606
 20
17.971
 30
18.814
 70
   192
  0
VERTEX
  8
12STG26-FABRIC
  5
6A7
 10
5.514
 20
17.076
 30
17.863
 70
   192
  0
VERTEX
  8
12STG26-FABRIC
  5
6A8
 10
3.173
 20
16.758
 30
18.433
 70
   192
  0
VERTEX
  8
12STG26-FABRIC
  5
6A9
 10
3.173
 20
16.758
 30
17.863
 70
   192
  0
VERTEX
  8
12STG26-FABRIC
  5
6AA
 10
5.514
 20
17.076
 30
18.433
 70
   192
  0
VERTEX
  8
12STG26-FABRIC
  5
6AB
 10
7.85
 20
17.406
 30
17.863
 70
   192
  0
VERTEX
  8
12STG26-FABRIC
  5
6AC
 10
9.595
 20
17.666
 30
17.863
 70
   192
  0
VERTEX
  8
12STG26-FABRIC
  5
6AD
 10
9.595
 20
17.666
 30
18.433
 70
   192
  0
VERTEX
  8
12STG26-FABRIC
  5
6AE
 10
7.85
 20
17.406
 30
18.433
 70
   192
  0
VERTEX
  8
12STG26-FABRIC
  5
6AF
 10
13.296
 20
18.235
 30
17.863
 70
   192
  0
VERTEX
  8
12STG26-FABRIC
  5
6B0
 10
11.342
 20
17.941
 30
17.863
 70
   192
  0
VERTEX
  8
12STG26-FABRIC
  5
6B1
 10
13.296
 20
18.235
 30
18.433
 70
   192
  0
VERTEX
  8
12STG26-FABRIC
  5
6B2
 10
16.985
 20
18.434
 30
18.433
 70
   192
  0
VERTEX
  8
12STG26-FABRIC
  5
6B3
 10
16.918
 20
18.427
 30
17.863
 70
   192
  0
VERTEX
  8
12STG26-FABRIC
  5
6B4
 10
15.379
 20
18.473
 30
18.433
 70
   192
  0
VERTEX
  8
12STG26-FABRIC
  5
6B5
 10
15.379
 20
18.473
 30
17.863
 70
   192
  0
VERTEX
  8
12STG26-FABRIC
  5
6B6
 10
0.0
 20
0.0
 30
0.0
 70
   128
 71
    -1
 72
    10
 73
    13
  0
VERTEX
  8
12STG26-FABRIC
  5
6B7
 10
0.0
 20
0.0
 30
0.0
 70
   128
 71
     2
 72
   -10
 73
     1
  0
VERTEX
  8
12STG26-FABRIC
  5
6B8
 10
0.0
 20
0.0
 30
0.0
 70
   128
 71
    -4
 72
    13
 73
    15
  0
VERTEX
  8
12STG26-FABRIC
  5
6B9
 10
0.0
 20
0.0
 30
0.0
 70
   128
 71
     1
 72
   -13
 73
     4
  0
VERTEX
  8
12STG26-FABRIC
  5
6BA
 10
0.0
 20
0.0
 30
0.0
 70
   128
 71
    -3
 72
    15
 73
     6
  0
VERTEX
  8
12STG26-FABRIC
  5
6BB
 10
0.0
 20
0.0
 30
0.0
 70
   128
 71
     4
 72
   -15
 73
     3
  0
VERTEX
  8
12STG26-FABRIC
  5
6BC
 10
0.0
 20
0.0
 30
0.0
 70
   128
 71
    -5
 72
     6
 73
    18
  0
VERTEX
  8
12STG26-FABRIC
  5
6BD
 10
0.0
 20
0.0
 30
0.0
 70
   128
 71
     3
 72
    -6
 73
     5
  0
VERTEX
  8
12STG26-FABRIC
  5
6BE
 10
0.0
 20
0.0
 30
0.0
 70
   128
 71
    -7
 72
    18
 73
    19
  0
VERTEX
  8
12STG26-FABRIC
  5
6BF
 10
0.0
 20
0.0
 30
0.0
 70
   128
 71
     5
 72
   -18
 73
     7
  0
VERTEX
  8
12STG26-FABRIC
  5
6C0
 10
0.0
 20
0.0
 30
0.0
 70
   128
 71
    -9
 72
    19
 73
    23
  0
VERTEX
  8
12STG26-FABRIC
  5
6C1
 10
0.0
 20
0.0
 30
0.0
 70
   128
 71
     7
 72
   -19
 73
     9
  0
VERTEX
  8
12STG26-FABRIC
  5
6C2
 10
0.0
 20
0.0
 30
0.0
 70
   128
 71
    -8
 72
    23
 73
    22
  0
VERTEX
  8
12STG26-FABRIC
  5
6C3
 10
0.0
 20
0.0
 30
0.0
 70
   128
 71
     9
 72
   -23
 73
     8
  0
VERTEX
  8
12STG26-FABRIC
  5
6C4
 10
0.0
 20
0.0
 30
0.0
 70
   128
 71
    13
 72
   -10
 73
    14
  0
VERTEX
  8
12STG26-FABRIC
  5
6C5
 10
0.0
 20
0.0
 30
0.0
 70
   128
 71
    11
 72
   -14
 73
    10
  0
VERTEX
  8
12STG26-FABRIC
  5
6C6
 10
0.0
 20
0.0
 30
0.0
 70
   128
 71
    15
 72
   -13
 73
    12
  0
VERTEX
  8
12STG26-FABRIC
  5
6C7
 10
0.0
 20
0.0
 30
0.0
 70
   128
 71
    14
 72
   -12
 73
    13
  0
VERTEX
  8
12STG26-FABRIC
  5
6C8
 10
0.0
 20
0.0
 30
0.0
 70
   128
 71
     6
 72
   -15
 73
    16
  0
VERTEX
  8
12STG26-FABRIC
  5
6C9
 10
0.0
 20
0.0
 30
0.0
 70
   128
 71
    12
 72
   -16
 73
    15
  0
VERTEX
  8
12STG26-FABRIC
  5
6CA
 10
0.0
 20
0.0
 30
0.0
 70
   128
 71
    18
 72
    -6
 73
    17
  0
VERTEX
  8
12STG26-FABRIC
  5
6CB
 10
0.0
 20
0.0
 30
0.0
 70
   128
 71
    16
 72
   -17
 73
     6
  0
VERTEX
  8
12STG26-FABRIC
  5
6CC
 10
0.0
 20
0.0
 30
0.0
 70
   128
 71
    19
 72
   -18
 73
    20
  0
VERTEX
  8
12STG26-FABRIC
  5
6CD
 10
0.0
 20
0.0
 30
0.0
 70
   128
 71
    17
 72
   -20
 73
    18
  0
VERTEX
  8
12STG26-FABRIC
  5
6CE
 10
0.0
 20
0.0
 30
0.0
 70
   128
 71
    23
 72
   -19
 73
    21
  0
VERTEX
  8
12STG26-FABRIC
  5
6CF
 10
0.0
 20
0.0
 30
0.0
 70
   128
 71
    20
 72
   -21
 73
    19
  0
VERTEX
  8
12STG26-FABRIC
  5
6D0
 10
0.0
 20
0.0
 30
0.0
 70
   128
 71
   -23
 72
    24
 73
    22
  0
VERTEX
  8
12STG26-FABRIC
  5
6D1
 10
0.0
 20
0.0
 30
0.0
 70
   128
 71
    21
 72
   -24
 73
    23
  0
VERTEX
  8
12STG26-FABRIC
  5
6D2
 10
0.0
 20
0.0
 30
0.0
 70
   128
 71
   -35
 72
    25
 73
    37
  0
VERTEX
  8
12STG26-FABRIC
  5
6D3
 10
0.0
 20
0.0
 30
0.0
 70
   128
 71
    35
 72
    26
 73
   -25
  0
VERTEX
  8
12STG26-FABRIC
  5
6D4
 10
0.0
 20
0.0
 30
0.0
 70
   128
 71
   -37
 72
    28
 73
    41
  0
VERTEX
  8
12STG26-FABRIC
  5
6D5
 10
0.0
 20
0.0
 30
0.0
 70
   128
 71
    37
 72
    25
 73
   -28
  0
VERTEX
  8
12STG26-FABRIC
  5
6D6
 10
0.0
 20
0.0
 30
0.0
 70
   128
 71
   -41
 72
    27
 73
    40
  0
VERTEX
  8
12STG26-FABRIC
  5
6D7
 10
0.0
 20
0.0
 30
0.0
 70
   128
 71
    41
 72
    28
 73
   -27
  0
VERTEX
  8
12STG26-FABRIC
  5
6D8
 10
0.0
 20
0.0
 30
0.0
 70
   128
 71
   -40
 72
    31
 73
    29
  0
VERTEX
  8
12STG26-FABRIC
  5
6D9
 10
0.0
 20
0.0
 30
0.0
 70
   128
 71
    40
 72
    27
 73
   -31
  0
VERTEX
  8
12STG26-FABRIC
  5
6DA
 10
0.0
 20
0.0
 30
0.0
 70
   128
 71
   -29
 72
    30
 73
    44
  0
VERTEX
  8
12STG26-FABRIC
  5
6DB
 10
0.0
 20
0.0
 30
0.0
 70
   128
 71
    29
 72
    31
 73
   -30
  0
VERTEX
  8
12STG26-FABRIC
  5
6DC
 10
0.0
 20
0.0
 30
0.0
 70
   128
 71
   -44
 72
    32
 73
    47
  0
VERTEX
  8
12STG26-FABRIC
  5
6DD
 10
0.0
 20
0.0
 30
0.0
 70
   128
 71
    44
 72
    30
 73
   -32
  0
VERTEX
  8
12STG26-FABRIC
  5
6DE
 10
0.0
 20
0.0
 30
0.0
 70
   128
 71
   -47
 72
    33
 73
    45
  0
VERTEX
  8
12STG26-FABRIC
  5
6DF
 10
0.0
 20
0.0
 30
0.0
 70
   128
 71
    47
 72
    32
 73
   -33
  0
VERTEX
  8
12STG26-FABRIC
  5
6E0
 10
0.0
 20
0.0
 30
0.0
 70
   128
 71
    35
 72
    37
 73
   -34
  0
VERTEX
  8
12STG26-FABRIC
  5
6E1
 10
0.0
 20
0.0
 30
0.0
 70
   128
 71
    34
 72
    36
 73
   -35
  0
VERTEX
  8
12STG26-FABRIC
  5
6E2
 10
0.0
 20
0.0
 30
0.0
 70
   128
 71
    37
 72
    41
 73
   -38
  0
VERTEX
  8
12STG26-FABRIC
  5
6E3
 10
0.0
 20
0.0
 30
0.0
 70
   128
 71
    38
 72
    34
 73
   -37
  0
VERTEX
  8
12STG26-FABRIC
  5
6E4
 10
0.0
 20
0.0
 30
0.0
 70
   128
 71
    41
 72
    40
 73
   -39
  0
VERTEX
  8
12STG26-FABRIC
  5
6E5
 10
0.0
 20
0.0
 30
0.0
 70
   128
 71
    39
 72
    38
 73
   -41
  0
VERTEX
  8
12STG26-FABRIC
  5
6E6
 10
0.0
 20
0.0
 30
0.0
 70
   128
 71
    40
 72
    29
 73
   -43
  0
VERTEX
  8
12STG26-FABRIC
  5
6E7
 10
0.0
 20
0.0
 30
0.0
 70
   128
 71
    43
 72
    39
 73
   -40
  0
VERTEX
  8
12STG26-FABRIC
  5
6E8
 10
0.0
 20
0.0
 30
0.0
 70
   128
 71
    29
 72
    44
 73
   -42
  0
VERTEX
  8
12STG26-FABRIC
  5
6E9
 10
0.0
 20
0.0
 30
0.0
 70
   128
 71
    42
 72
    43
 73
   -29
  0
VERTEX
  8
12STG26-FABRIC
  5
6EA
 10
0.0
 20
0.0
 30
0.0
 70
   128
 71
    44
 72
    47
 73
   -48
  0
VERTEX
  8
12STG26-FABRIC
  5
6EB
 10
0.0
 20
0.0
 30
0.0
 70
   128
 71
    48
 72
    42
 73
   -44
  0
VERTEX
  8
12STG26-FABRIC
  5
6EC
 10
0.0
 20
0.0
 30
0.0
 70
   128
 71
   -46
 72
    47
 73
    45
  0
VERTEX
  8
12STG26-FABRIC
  5
6ED
 10
0.0
 20
0.0
 30
0.0
 70
   128
 71
    46
 72
    48
 73
   -47
  0
SEQEND
  8
12STG26-FABRIC
  5
6EE
  0
POLYLINE
  8
12STG26-MAIN
  5
708
 66
     1
 10
0.0
 20
0.0
 30
0.0
 70
    64
 71
   216
 72
   272
1001
AVE_ENTITY_MATERIAL
1002
{
1000

1002
{
1071
        0
1070
     0
1070
     0
1002
{
1070
     0
1070
     0
1070
     0
1040
0.0
1002
}
1070
     0
1070
     0
1002
{
1002
}
1002
}
1002
{
1002
}
1002
{
1002
}
1011
0.0
1021
0.0
1031
0.0
1011
1.0
1021
0.0
1031
0.0
1011
0.0
1021
1.0
1031
0.0
1011
0.0
1021
0.0
1031
1.0
1002
}
1001
AVE_FINISH
1002
{
1070
     0
1005
66C
1002
}
  0
VERTEX
  8
12STG26-MAIN
  5
709
 10
17.342
 20
-1.426
 30
0.143
 70
   192
  0
VERTEX
  8
12STG26-MAIN
  5
70A
 10
17.237
 20
-2.131
 30
0.036
 70
   192
  0
VERTEX
  8
12STG26-MAIN
  5
70B
 10
16.906
 20
-1.018
 30
2.479
 70
   192
  0
VERTEX
  8
12STG26-MAIN
  5
70C
 10
17.052
 20
-1.154
 30
1.285
 70
   192
  0
VERTEX
  8
12STG26-MAIN
  5
70D
 10
16.896
 20
-1.723
 30
2.395
 70
   192
  0
VERTEX
  8
12STG26-MAIN
  5
70E
 10
17.017
 20
-1.806
 30
1.187
 70
   192
  0
VERTEX
  8
12STG26-MAIN
  5
70F
 10
16.793
 20
-1.74
 30
3.613
 70
   192
  0
VERTEX
  8
12STG26-MAIN
  5
710
 10
16.818
 20
-0.936
 30
3.685
 70
   192
  0
VERTEX
  8
12STG26-MAIN
  5
711
 10
16.765
 20
-0.887
 30
4.895
 70
   192
  0
VERTEX
  8
12STG26-MAIN
  5
712
 10
16.675
 20
-1.798
 30
4.828
 70
   192
  0
VERTEX
  8
12STG26-MAIN
  5
713
 10
16.748
 20
-0.87
 30
6.106
 70
   192
  0
VERTEX
  8
12STG26-MAIN
  5
714
 10
16.751
 20
-0.871
 30
7.318
 70
   192
  0
VERTEX
  8
12STG26-MAIN
  5
715
 10
16.558
 20
-1.91
 30
6.041
 70
   192
  0
VERTEX
  8
12STG26-MAIN
  5
716
 10
16.442
 20
-2.05
 30
7.25
 70
   192
  0
VERTEX
  8
12STG26-MAIN
  5
717
 10
16.758
 20
-0.877
 30
8.53
 70
   192
  0
VERTEX
  8
12STG26-MAIN
  5
718
 10
16.752
 20
-0.871
 30
9.742
 70
   192
  0
VERTEX
  8
12STG26-MAIN
  5
719
 10
16.327
 20
-2.195
 30
8.46
 70
   192
  0
VERTEX
  8
12STG26-MAIN
  5
71A
 10
16.212
 20
-2.322
 30
9.672
 70
   192
  0
VERTEX
  8
12STG26-MAIN
  5
71B
 10
16.097
 20
-2.396
 30
10.886
 70
   192
  0
VERTEX
  8
12STG26-MAIN
  5
71C
 10
16.591
 20
-0.72
 30
12.151
 70
   192
  0
VERTEX
  8
12STG26-MAIN
  5
71D
 10
16.709
 20
-0.829
 30
10.951
 70
   192
  0
VERTEX
  8
12STG26-MAIN
  5
71E
 10
16.316
 20
-0.463
 30
13.297
 70
   192
  0
VERTEX
  8
12STG26-MAIN
  5
71F
 10
15.986
 20
-2.362
 30
12.102
 70
   192
  0
VERTEX
  8
12STG26-MAIN
  5
720
 10
15.89
 20
-2.102
 30
13.282
 70
   192
  0
VERTEX
  8
12STG26-MAIN
  5
721
 10
15.344
 20
0.442
 30
15.248
 70
   192
  0
VERTEX
  8
12STG26-MAIN
  5
722
 10
15.74
 20
0.072
 30
14.201
 70
   192
  0
VERTEX
  8
12STG26-MAIN
  5
723
 10
15.83
 20
-1.428
 30
14.272
 70
   192
  0
VERTEX
  8
12STG26-MAIN
  5
724
 10
15.746
 20
-1.018
 30
15.383
 70
   192
  0
VERTEX
  8
12STG26-MAIN
  5
725
 10
2.915
 20
0.391
 30
15.541
 70
   192
  0
VERTEX
  8
12STG26-MAIN
  5
726
 10
2.281
 20
0.193
 30
7.813
 70
   192
  0
VERTEX
  8
12STG26-MAIN
  5
727
 10
2.718
 20
1.176
 30
15.52
 70
   192
  0
VERTEX
  8
12STG26-MAIN
  5
728
 10
2.084
 20
0.978
 30
7.793
 70
   192
  0
VERTEX
  8
12STG26-MAIN
  5
729
 10
1.127
 20
0.0
 30
0.268
 70
   192
  0
VERTEX
  8
12STG26-MAIN
  5
72A
 10
1.788
 20
0.391
 30
15.42
 70
   192
  0
VERTEX
  8
12STG26-MAIN
  5
72B
 10
1.591
 20
1.176
 30
15.398
 70
   192
  0
VERTEX
  8
12STG26-MAIN
  5
72C
 10
0.956
 20
0.978
 30
7.672
 70
   192
  0
VERTEX
  8
12STG26-MAIN
  5
72D
 10
1.154
 20
0.193
 30
7.692
 70
   192
  0
VERTEX
  8
12STG26-MAIN
  5
72E
 10
0.0
 20
0.0
 30
0.146
 70
   192
  0
VERTEX
  8
12STG26-MAIN
  5
72F
 10
-0.197
 20
0.786
 30
0.125
 70
   192
  0
VERTEX
  8
12STG26-MAIN
  5
730
 10
0.93
 20
0.786
 30
0.246
 70
   192
  0
VERTEX
  8
12STG26-MAIN
  5
731
 10
17.004
 20
-0.635
 30
15.396
 70
   192
  0
VERTEX
  8
12STG26-MAIN
  5
732
 10
17.244
 20
-0.786
 30
14.455
 70
   192
  0
VERTEX
  8
12STG26-MAIN
  5
733
 10
16.924
 20
-1.016
 30
15.416
 70
   192
  0
VERTEX
  8
12STG26-MAIN
  5
734
 10
17.572
 20
-1.621
 30
13.697
 70
   192
  0
VERTEX
  8
12STG26-MAIN
  5
735
 10
17.126
 20
-1.206
 30
14.476
 70
   192
  0
VERTEX
  8
12STG26-MAIN
  5
736
 10
17.776
 20
-1.08
 30
13.673
 70
   192
  0
VERTEX
  8
12STG26-MAIN
  5
737
 10
17.844
 20
-1.874
 30
12.781
 70
   192
  0
VERTEX
  8
12STG26-MAIN
  5
738
 10
18.095
 20
-1.271
 30
12.757
 70
   192
  0
VERTEX
  8
12STG26-MAIN
  5
739
 10
17.938
 20
-1.961
 30
11.796
 70
   192
  0
VERTEX
  8
12STG26-MAIN
  5
73A
 10
17.947
 20
-1.972
 30
10.802
 70
   192
  0
VERTEX
  8
12STG26-MAIN
  5
73B
 10
17.908
 20
-1.934
 30
9.809
 70
   192
  0
VERTEX
  8
12STG26-MAIN
  5
73C
 10
18.145
 20
-1.398
 30
9.791
 70
   192
  0
VERTEX
  8
12STG26-MAIN
  5
73D
 10
17.837
 20
-1.871
 30
8.82
 70
   192
  0
VERTEX
  8
12STG26-MAIN
  5
73E
 10
17.755
 20
-1.796
 30
7.831
 70
   192
  0
VERTEX
  8
12STG26-MAIN
  5
73F
 10
17.947
 20
-1.366
 30
7.819
 70
   192
  0
VERTEX
  8
12STG26-MAIN
  5
740
 10
17.67
 20
-1.717
 30
6.845
 70
   192
  0
VERTEX
  8
12STG26-MAIN
  5
741
 10
17.591
 20
-1.645
 30
5.856
 70
   192
  0
VERTEX
  8
12STG26-MAIN
  5
742
 10
17.53
 20
-1.588
 30
4.865
 70
   192
  0
VERTEX
  8
12STG26-MAIN
  5
743
 10
17.495
 20
-1.556
 30
3.871
 70
   192
  0
VERTEX
  8
12STG26-MAIN
  5
744
 10
17.58
 20
-1.352
 30
2.879
 70
   192
  0
VERTEX
  8
12STG26-MAIN
  5
745
 10
17.478
 20
-1.543
 30
1.883
 70
   192
  0
VERTEX
  8
12STG26-MAIN
  5
746
 10
17.485
 20
-1.548
 30
2.878
 70
   192
  0
VERTEX
  8
12STG26-MAIN
  5
747
 10
17.567
 20
-1.374
 30
1.886
 70
   192
  0
VERTEX
  8
12STG26-MAIN
  5
748
 10
17.606
 20
-1.662
 30
0.908
 70
   192
  0
VERTEX
  8
12STG26-MAIN
  5
749
 10
17.902
 20
-1.936
 30
0.001
 70
   192
  0
VERTEX
  8
12STG26-MAIN
  5
74A
 10
17.771
 20
-0.492
 30
13.644
 70
   192
  0
VERTEX
  8
12STG26-MAIN
  5
74B
 10
18.121
 20
-0.608
 30
12.728
 70
   192
  0
VERTEX
  8
12STG26-MAIN
  5
74C
 10
18.238
 20
-0.69
 30
11.747
 70
   192
  0
VERTEX
  8
12STG26-MAIN
  5
74D
 10
18.197
 20
-1.356
 30
11.773
 70
   192
  0
VERTEX
  8
12STG26-MAIN
  5
74E
 10
18.203
 20
-1.392
 30
10.781
 70
   192
  0
VERTEX
  8
12STG26-MAIN
  5
74F
 10
18.054
 20
-1.386
 30
8.804
 70
   192
  0
VERTEX
  8
12STG26-MAIN
  5
750
 10
18.096
 20
-0.85
 30
8.789
 70
   192
  0
VERTEX
  8
12STG26-MAIN
  5
751
 10
17.837
 20
-1.344
 30
6.835
 70
   192
  0
VERTEX
  8
12STG26-MAIN
  5
752
 10
17.764
 20
-0.974
 30
5.848
 70
   192
  0
VERTEX
  8
12STG26-MAIN
  5
753
 10
17.652
 20
-1.319
 30
4.862
 70
   192
  0
VERTEX
  8
12STG26-MAIN
  5
754
 10
17.735
 20
-1.326
 30
5.85
 70
   192
  0
VERTEX
  8
12STG26-MAIN
  5
755
 10
17.678
 20
-1.021
 30
4.864
 70
   192
  0
VERTEX
  8
12STG26-MAIN
  5
756
 10
17.626
 20
-1.076
 30
3.877
 70
   192
  0
VERTEX
  8
12STG26-MAIN
  5
757
 10
17.602
 20
-1.328
 30
3.871
 70
   192
  0
VERTEX
  8
12STG26-MAIN
  5
758
 10
17.696
 20
-1.49
 30
0.912
 70
   192
  0
VERTEX
  8
12STG26-MAIN
  5
759
 10
18.031
 20
-1.501
 30
0.002
 70
   192
  0
VERTEX
  8
12STG26-MAIN
  5
75A
 10
18.001
 20
-1.73
 30
0.0
 70
   192
  0
VERTEX
  8
12STG26-MAIN
  5
75B
 10
16.829
 20
0.148
 30
15.343
 70
   192
  0
VERTEX
  8
12STG26-MAIN
  5
75C
 10
16.933
 20
-0.241
 30
15.37
 70
   192
  0
VERTEX
  8
12STG26-MAIN
  5
75D
 10
17.104
 20
0.094
 30
14.404
 70
   192
  0
VERTEX
  8
12STG26-MAIN
  5
75E
 10
17.708
 20
0.094
 30
13.614
 70
   192
  0
VERTEX
  8
12STG26-MAIN
  5
75F
 10
17.194
 20
-0.343
 30
14.43
 70
   192
  0
VERTEX
  8
12STG26-MAIN
  5
760
 10
18.079
 20
0.053
 30
12.698
 70
   192
  0
VERTEX
  8
12STG26-MAIN
  5
761
 10
18.208
 20
-0.022
 30
11.719
 70
   192
  0
VERTEX
  8
12STG26-MAIN
  5
762
 10
18.224
 20
-0.112
 30
10.734
 70
   192
  0
VERTEX
  8
12STG26-MAIN
  5
763
 10
18.247
 20
-0.752
 30
10.758
 70
   192
  0
VERTEX
  8
12STG26-MAIN
  5
764
 10
18.173
 20
-0.21
 30
9.751
 70
   192
  0
VERTEX
  8
12STG26-MAIN
  5
765
 10
18.082
 20
-0.311
 30
8.773
 70
   192
  0
VERTEX
  8
12STG26-MAIN
  5
766
 10
18.191
 20
-0.805
 30
9.772
 70
   192
  0
VERTEX
  8
12STG26-MAIN
  5
767
 10
17.972
 20
-0.414
 30
7.798
 70
   192
  0
VERTEX
  8
12STG26-MAIN
  5
768
 10
17.86
 20
-0.517
 30
6.823
 70
   192
  0
VERTEX
  8
12STG26-MAIN
  5
769
 10
17.87
 20
-0.931
 30
6.828
 70
   192
  0
VERTEX
  8
12STG26-MAIN
  5
76A
 10
17.986
 20
-0.89
 30
7.808
 70
   192
  0
VERTEX
  8
12STG26-MAIN
  5
76B
 10
17.756
 20
-0.619
 30
5.846
 70
   192
  0
VERTEX
  8
12STG26-MAIN
  5
76C
 10
17.674
 20
-0.721
 30
4.867
 70
   192
  0
VERTEX
  8
12STG26-MAIN
  5
76D
 10
17.624
 20
-0.823
 30
3.886
 70
   192
  0
VERTEX
  8
12STG26-MAIN
  5
76E
 10
17.608
 20
-1.136
 30
2.888
 70
   192
  0
VERTEX
  8
12STG26-MAIN
  5
76F
 10
17.611
 20
-0.917
 30
2.902
 70
   192
  0
VERTEX
  8
12STG26-MAIN
  5
770
 10
17.615
 20
-0.994
 30
1.914
 70
   192
  0
VERTEX
  8
12STG26-MAIN
  5
771
 10
17.602
 20
-1.184
 30
1.9
 70
   192
  0
VERTEX
  8
12STG26-MAIN
  5
772
 10
17.746
 20
-1.104
 30
0.941
 70
   192
  0
VERTEX
  8
12STG26-MAIN
  5
773
 10
18.037
 20
-1.268
 30
0.007
 70
   192
  0
VERTEX
  8
12STG26-MAIN
  5
774
 10
17.731
 20
-1.298
 30
0.925
 70
   192
  0
VERTEX
  8
12STG26-MAIN
  5
775
 10
17.746
 20
17.969
 30
0.941
 70
   192
  0
VERTEX
  8
12STG26-MAIN
  5
776
 10
18.037
 20
18.133
 30
0.007
 70
   192
  0
VERTEX
  8
12STG26-MAIN
  5
777
 10
17.615
 20
17.858
 30
1.914
 70
   192
  0
VERTEX
  8
12STG26-MAIN
  5
778
 10
17.624
 20
17.688
 30
3.886
 70
   192
  0
VERTEX
  8
12STG26-MAIN
  5
779
 10
17.611
 20
17.782
 30
2.902
 70
   192
  0
VERTEX
  8
12STG26-MAIN
  5
77A
 10
17.608
 20
18.001
 30
2.888
 70
   192
  0
VERTEX
  8
12STG26-MAIN
  5
77B
 10
17.756
 20
17.484
 30
5.846
 70
   192
  0
VERTEX
  8
12STG26-MAIN
  5
77C
 10
17.674
 20
17.586
 30
4.867
 70
   192
  0
VERTEX
  8
12STG26-MAIN
  5
77D
 10
17.87
 20
17.796
 30
6.828
 70
   192
  0
VERTEX
  8
12STG26-MAIN
  5
77E
 10
17.972
 20
17.279
 30
7.798
 70
   192
  0
VERTEX
  8
12STG26-MAIN
  5
77F
 10
17.86
 20
17.382
 30
6.823
 70
   192
  0
VERTEX
  8
12STG26-MAIN
  5
780
 10
17.986
 20
17.755
 30
7.808
 70
   192
  0
VERTEX
  8
12STG26-MAIN
  5
781
 10
18.096
 20
17.714
 30
8.789
 70
   192
  0
VERTEX
  8
12STG26-MAIN
  5
782
 10
18.082
 20
17.176
 30
8.773
 70
   192
  0
VERTEX
  8
12STG26-MAIN
  5
783
 10
18.173
 20
17.075
 30
9.751
 70
   192
  0
VERTEX
  8
12STG26-MAIN
  5
784
 10
18.224
 20
16.976
 30
10.734
 70
   192
  0
VERTEX
  8
12STG26-MAIN
  5
785
 10
18.247
 20
17.617
 30
10.758
 70
   192
  0
VERTEX
  8
12STG26-MAIN
  5
786
 10
18.079
 20
16.812
 30
12.698
 70
   192
  0
VERTEX
  8
12STG26-MAIN
  5
787
 10
18.208
 20
16.886
 30
11.719
 70
   192
  0
VERTEX
  8
12STG26-MAIN
  5
788
 10
18.121
 20
17.473
 30
12.728
 70
   192
  0
VERTEX
  8
12STG26-MAIN
  5
789
 10
17.104
 20
16.771
 30
14.404
 70
   192
  0
VERTEX
  8
12STG26-MAIN
  5
78A
 10
17.708
 20
16.771
 30
13.614
 70
   192
  0
VERTEX
  8
12STG26-MAIN
  5
78B
 10
16.829
 20
16.717
 30
15.343
 70
   192
  0
VERTEX
  8
12STG26-MAIN
  5
78C
 10
16.933
 20
17.106
 30
15.37
 70
   192
  0
VERTEX
  8
12STG26-MAIN
  5
78D
 10
18.031
 20
18.366
 30
0.002
 70
   192
  0
VERTEX
  8
12STG26-MAIN
  5
78E
 10
17.567
 20
18.239
 30
1.886
 70
   192
  0
VERTEX
  8
12STG26-MAIN
  5
78F
 10
17.731
 20
18.163
 30
0.925
 70
   192
  0
VERTEX
  8
12STG26-MAIN
  5
790
 10
17.602
 20
18.049
 30
1.9
 70
   192
  0
VERTEX
  8
12STG26-MAIN
  5
791
 10
17.602
 20
18.193
 30
3.871
 70
   192
  0
VERTEX
  8
12STG26-MAIN
  5
792
 10
17.652
 20
18.184
 30
4.862
 70
   192
  0
VERTEX
  8
12STG26-MAIN
  5
793
 10
17.626
 20
17.941
 30
3.877
 70
   192
  0
VERTEX
  8
12STG26-MAIN
  5
794
 10
17.764
 20
17.839
 30
5.848
 70
   192
  0
VERTEX
  8
12STG26-MAIN
  5
795
 10
17.678
 20
17.886
 30
4.864
 70
   192
  0
VERTEX
  8
12STG26-MAIN
  5
796
 10
18.054
 20
18.251
 30
8.804
 70
   192
  0
VERTEX
  8
12STG26-MAIN
  5
797
 10
17.947
 20
18.23
 30
7.819
 70
   192
  0
VERTEX
  8
12STG26-MAIN
  5
798
 10
18.191
 20
17.67
 30
9.772
 70
   192
  0
VERTEX
  8
12STG26-MAIN
  5
799
 10
18.203
 20
18.257
 30
10.781
 70
   192
  0
VERTEX
  8
12STG26-MAIN
  5
79A
 10
18.238
 20
17.555
 30
11.747
 70
   192
  0
VERTEX
  8
12STG26-MAIN
  5
79B
 10
17.771
 20
17.357
 30
13.644
 70
   192
  0
VERTEX
  8
12STG26-MAIN
  5
79C
 10
18.095
 20
18.136
 30
12.757
 70
   192
  0
VERTEX
  8
12STG26-MAIN
  5
79D
 10
17.194
 20
17.208
 30
14.43
 70
   192
  0
VERTEX
  8
12STG26-MAIN
  5
79E
 10
17.244
 20
17.651
 30
14.455
 70
   192
  0
VERTEX
  8
12STG26-MAIN
  5
79F
 10
17.004
 20
17.5
 30
15.396
 70
   192
  0
VERTEX
  8
12STG26-MAIN
  5
7A0
 10
18.001
 20
18.595
 30
0.0
 70
   192
  0
VERTEX
  8
12STG26-MAIN
  5
7A1
 10
17.902
 20
18.8
 30
0.001
 70
   192
  0
VERTEX
  8
12STG26-MAIN
  5
7A2
 10
17.606
 20
18.527
 30
0.908
 70
   192
  0
VERTEX
  8
12STG26-MAIN
  5
7A3
 10
17.478
 20
18.408
 30
1.883
 70
   192
  0
VERTEX
  8
12STG26-MAIN
  5
7A4
 10
17.696
 20
18.355
 30
0.912
 70
   192
  0
VERTEX
  8
12STG26-MAIN
  5
7A5
 10
17.485
 20
18.413
 30
2.878
 70
   192
  0
VERTEX
  8
12STG26-MAIN
  5
7A6
 10
17.58
 20
18.217
 30
2.879
 70
   192
  0
VERTEX
  8
12STG26-MAIN
  5
7A7
 10
17.495
 20
18.421
 30
3.871
 70
   192
  0
VERTEX
  8
12STG26-MAIN
  5
7A8
 10
17.591
 20
18.51
 30
5.856
 70
   192
  0
VERTEX
  8
12STG26-MAIN
  5
7A9
 10
17.53
 20
18.452
 30
4.865
 70
   192
  0
VERTEX
  8
12STG26-MAIN
  5
7AA
 10
17.837
 20
18.209
 30
6.835
 70
   192
  0
VERTEX
  8
12STG26-MAIN
  5
7AB
 10
17.735
 20
18.191
 30
5.85
 70
   192
  0
VERTEX
  8
12STG26-MAIN
  5
7AC
 10
17.67
 20
18.582
 30
6.845
 70
   192
  0
VERTEX
  8
12STG26-MAIN
  5
7AD
 10
17.755
 20
18.661
 30
7.831
 70
   192
  0
VERTEX
  8
12STG26-MAIN
  5
7AE
 10
18.145
 20
18.263
 30
9.791
 70
   192
  0
VERTEX
  8
12STG26-MAIN
  5
7AF
 10
17.837
 20
18.736
 30
8.82
 70
   192
  0
VERTEX
  8
12STG26-MAIN
  5
7B0
 10
17.908
 20
18.799
 30
9.809
 70
   192
  0
VERTEX
  8
12STG26-MAIN
  5
7B1
 10
17.947
 20
18.836
 30
10.802
 70
   192
  0
VERTEX
  8
12STG26-MAIN
  5
7B2
 10
18.197
 20
18.221
 30
11.773
 70
   192
  0
VERTEX
  8
12STG26-MAIN
  5
7B3
 10
17.938
 20
18.826
 30
11.796
 70
   192
  0
VERTEX
  8
12STG26-MAIN
  5
7B4
 10
17.572
 20
18.486
 30
13.697
 70
   192
  0
VERTEX
  8
12STG26-MAIN
  5
7B5
 10
17.844
 20
18.739
 30
12.781
 70
   192
  0
VERTEX
  8
12STG26-MAIN
  5
7B6
 10
17.776
 20
17.945
 30
13.673
 70
   192
  0
VERTEX
  8
12STG26-MAIN
  5
7B7
 10
17.126
 20
18.071
 30
14.476
 70
   192
  0
VERTEX
  8
12STG26-MAIN
  5
7B8
 10
16.924
 20
17.881
 30
15.416
 70
   192
  0
VERTEX
  8
12STG26-MAIN
  5
7B9
 10
0.0
 20
16.865
 30
0.146
 70
   192
  0
VERTEX
  8
12STG26-MAIN
  5
7BA
 10
1.788
 20
16.474
 30
15.42
 70
   192
  0
VERTEX
  8
12STG26-MAIN
  5
7BB
 10
1.591
 20
15.689
 30
15.398
 70
   192
  0
VERTEX
  8
12STG26-MAIN
  5
7BC
 10
1.154
 20
16.672
 30
7.692
 70
   192
  0
VERTEX
  8
12STG26-MAIN
  5
7BD
 10
0.956
 20
15.887
 30
7.672
 70
   192
  0
VERTEX
  8
12STG26-MAIN
  5
7BE
 10
-0.197
 20
16.079
 30
0.125
 70
   192
  0
VERTEX
  8
12STG26-MAIN
  5
7BF
 10
2.084
 20
15.887
 30
7.793
 70
   192
  0
VERTEX
  8
12STG26-MAIN
  5
7C0
 10
1.127
 20
16.865
 30
0.268
 70
   192
  0
VERTEX
  8
12STG26-MAIN
  5
7C1
 10
0.93
 20
16.079
 30
0.246
 70
   192
  0
VERTEX
  8
12STG26-MAIN
  5
7C2
 10
2.915
 20
16.474
 30
15.541
 70
   192
  0
VERTEX
  8
12STG26-MAIN
  5
7C3
 10
2.718
 20
15.689
 30
15.52
 70
   192
  0
VERTEX
  8
12STG26-MAIN
  5
7C4
 10
2.281
 20
16.672
 30
7.813
 70
   192
  0
VERTEX
  8
12STG26-MAIN
  5
7C5
 10
17.342
 20
18.29
 30
0.143
 70
   192
  0
VERTEX
  8
12STG26-MAIN
  5
7C6
 10
17.237
 20
18.996
 30
0.036
 70
   192
  0
VERTEX
  8
12STG26-MAIN
  5
7C7
 10
16.906
 20
17.882
 30
2.479
 70
   192
  0
VERTEX
  8
12STG26-MAIN
  5
7C8
 10
17.052
 20
18.019
 30
1.285
 70
   192
  0
VERTEX
  8
12STG26-MAIN
  5
7C9
 10
17.017
 20
18.671
 30
1.187
 70
   192
  0
VERTEX
  8
12STG26-MAIN
  5
7CA
 10
16.896
 20
18.588
 30
2.395
 70
   192
  0
VERTEX
  8
12STG26-MAIN
  5
7CB
 10
16.765
 20
17.752
 30
4.895
 70
   192
  0
VERTEX
  8
12STG26-MAIN
  5
7CC
 10
16.818
 20
17.801
 30
3.685
 70
   192
  0
VERTEX
  8
12STG26-MAIN
  5
7CD
 10
16.793
 20
18.605
 30
3.613
 70
   192
  0
VERTEX
  8
12STG26-MAIN
  5
7CE
 10
16.675
 20
18.662
 30
4.828
 70
   192
  0
VERTEX
  8
12STG26-MAIN
  5
7CF
 10
16.748
 20
17.735
 30
6.106
 70
   192
  0
VERTEX
  8
12STG26-MAIN
  5
7D0
 10
16.558
 20
18.775
 30
6.041
 70
   192
  0
VERTEX
  8
12STG26-MAIN
  5
7D1
 10
16.751
 20
17.736
 30
7.318
 70
   192
  0
VERTEX
  8
12STG26-MAIN
  5
7D2
 10
16.758
 20
17.742
 30
8.53
 70
   192
  0
VERTEX
  8
12STG26-MAIN
  5
7D3
 10
16.442
 20
18.914
 30
7.25
 70
   192
  0
VERTEX
  8
12STG26-MAIN
  5
7D4
 10
16.327
 20
19.06
 30
8.46
 70
   192
  0
VERTEX
  8
12STG26-MAIN
  5
7D5
 10
16.212
 20
19.187
 30
9.672
 70
   192
  0
VERTEX
  8
12STG26-MAIN
  5
7D6
 10
16.709
 20
17.694
 30
10.951
 70
   192
  0
VERTEX
  8
12STG26-MAIN
  5
7D7
 10
16.752
 20
17.736
 30
9.742
 70
   192
  0
VERTEX
  8
12STG26-MAIN
  5
7D8
 10
16.097
 20
19.261
 30
10.886
 70
   192
  0
VERTEX
  8
12STG26-MAIN
  5
7D9
 10
15.986
 20
19.226
 30
12.102
 70
   192
  0
VERTEX
  8
12STG26-MAIN
  5
7DA
 10
16.591
 20
17.585
 30
12.151
 70
   192
  0
VERTEX
  8
12STG26-MAIN
  5
7DB
 10
15.89
 20
18.967
 30
13.282
 70
   192
  0
VERTEX
  8
12STG26-MAIN
  5
7DC
 10
15.83
 20
18.293
 30
14.272
 70
   192
  0
VERTEX
  8
12STG26-MAIN
  5
7DD
 10
16.316
 20
17.328
 30
13.297
 70
   192
  0
VERTEX
  8
12STG26-MAIN
  5
7DE
 10
15.344
 20
16.423
 30
15.248
 70
   192
  0
VERTEX
  8
12STG26-MAIN
  5
7DF
 10
15.74
 20
16.793
 30
14.201
 70
   192
  0
VERTEX
  8
12STG26-MAIN
  5
7E0
 10
15.746
 20
17.882
 30
15.383
 70
   192
  0
VERTEX
  8
12STG26-MAIN
  5
7E1
 10
0.0
 20
0.0
 30
0.0
 70
   128
 71
    -6
 72
     1
 73
     4
  0
VERTEX
  8
12STG26-MAIN
  5
7E2
 10
0.0
 20
0.0
 30
0.0
 70
   128
 71
     6
 72
     2
 73
    -1
  0
VERTEX
  8
12STG26-MAIN
  5
7E3
 10
0.0
 20
0.0
 30
0.0
 70
   128
 71
    -5
 72
     4
 73
     3
  0
VERTEX
  8
12STG26-MAIN
  5
7E4
 10
0.0
 20
0.0
 30
0.0
 70
   128
 71
     5
 72
     6
 73
    -4
  0
VERTEX
  8
12STG26-MAIN
  5
7E5
 10
0.0
 20
0.0
 30
0.0
 70
   128
 71
    -7
 72
     3
 73
     8
  0
VERTEX
  8
12STG26-MAIN
  5
7E6
 10
0.0
 20
0.0
 30
0.0
 70
   128
 71
     7
 72
     5
 73
    -3
  0
VERTEX
  8
12STG26-MAIN
  5
7E7
 10
0.0
 20
0.0
 30
0.0
 70
   128
 71
   -10
 72
     8
 73
     9
  0
VERTEX
  8
12STG26-MAIN
  5
7E8
 10
0.0
 20
0.0
 30
0.0
 70
   128
 71
    10
 72
     7
 73
    -8
  0
VERTEX
  8
12STG26-MAIN
  5
7E9
 10
0.0
 20
0.0
 30
0.0
 70
   128
 71
   -13
 72
     9
 73
    11
  0
VERTEX
  8
12STG26-MAIN
  5
7EA
 10
0.0
 20
0.0
 30
0.0
 70
   128
 71
    13
 72
    10
 73
    -9
  0
VERTEX
  8
12STG26-MAIN
  5
7EB
 10
0.0
 20
0.0
 30
0.0
 70
   128
 71
   -12
 72
    13
 73
    11
  0
VERTEX
  8
12STG26-MAIN
  5
7EC
 10
0.0
 20
0.0
 30
0.0
 70
   128
 71
    12
 72
    14
 73
   -13
  0
VERTEX
  8
12STG26-MAIN
  5
7ED
 10
0.0
 20
0.0
 30
0.0
 70
   128
 71
   -15
 72
    14
 73
    12
  0
VERTEX
  8
12STG26-MAIN
  5
7EE
 10
0.0
 20
0.0
 30
0.0
 70
   128
 71
    15
 72
    17
 73
   -14
  0
VERTEX
  8
12STG26-MAIN
  5
7EF
 10
0.0
 20
0.0
 30
0.0
 70
   128
 71
   -16
 72
    17
 73
    15
  0
VERTEX
  8
12STG26-MAIN
  5
7F0
 10
0.0
 20
0.0
 30
0.0
 70
   128
 71
    16
 72
    18
 73
   -17
  0
VERTEX
  8
12STG26-MAIN
  5
7F1
 10
0.0
 20
0.0
 30
0.0
 70
   128
 71
   -19
 72
    16
 73
    21
  0
VERTEX
  8
12STG26-MAIN
  5
7F2
 10
0.0
 20
0.0
 30
0.0
 70
   128
 71
    19
 72
    18
 73
   -16
  0
VERTEX
  8
12STG26-MAIN
  5
7F3
 10
0.0
 20
0.0
 30
0.0
 70
   128
 71
   -23
 72
    21
 73
    20
  0
VERTEX
  8
12STG26-MAIN
  5
7F4
 10
0.0
 20
0.0
 30
0.0
 70
   128
 71
    23
 72
    19
 73
   -21
  0
VERTEX
  8
12STG26-MAIN
  5
7F5
 10
0.0
 20
0.0
 30
0.0
 70
   128
 71
   -24
 72
    20
 73
    22
  0
VERTEX
  8
12STG26-MAIN
  5
7F6
 10
0.0
 20
0.0
 30
0.0
 70
   128
 71
    24
 72
    23
 73
   -20
  0
VERTEX
  8
12STG26-MAIN
  5
7F7
 10
0.0
 20
0.0
 30
0.0
 70
   128
 71
   -27
 72
    22
 73
    26
  0
VERTEX
  8
12STG26-MAIN
  5
7F8
 10
0.0
 20
0.0
 30
0.0
 70
   128
 71
    27
 72
    24
 73
   -22
  0
VERTEX
  8
12STG26-MAIN
  5
7F9
 10
0.0
 20
0.0
 30
0.0
 70
   128
 71
   -28
 72
    26
 73
    25
  0
VERTEX
  8
12STG26-MAIN
  5
7FA
 10
0.0
 20
0.0
 30
0.0
 70
   128
 71
    28
 72
    27
 73
   -26
  0
VERTEX
  8
12STG26-MAIN
  5
7FB
 10
0.0
 20
0.0
 30
0.0
 70
   128
 71
   -30
 72
    31
 73
    29
  0
VERTEX
  8
12STG26-MAIN
  5
7FC
 10
0.0
 20
0.0
 30
0.0
 70
   128
 71
    30
 72
    32
 73
   -31
  0
VERTEX
  8
12STG26-MAIN
  5
7FD
 10
0.0
 20
0.0
 30
0.0
 70
   128
 71
   -33
 72
    32
 73
    30
  0
VERTEX
  8
12STG26-MAIN
  5
7FE
 10
0.0
 20
0.0
 30
0.0
 70
   128
 71
    33
 72
    40
 73
   -32
  0
VERTEX
  8
12STG26-MAIN
  5
7FF
 10
0.0
 20
0.0
 30
0.0
 70
   128
 71
   -35
 72
    37
 73
    34
  0
VERTEX
  8
12STG26-MAIN
  5
800
 10
0.0
 20
0.0
 30
0.0
 70
   128
 71
    36
 72
   -37
 73
    35
  0
VERTEX
  8
12STG26-MAIN
  5
801
 10
0.0
 20
0.0
 30
0.0
 70
   128
 71
   -36
 72
    38
 73
    37
  0
VERTEX
  8
12STG26-MAIN
  5
802
 10
0.0
 20
0.0
 30
0.0
 70
   128
 71
    39
 72
   -38
 73
    36
  0
VERTEX
  8
12STG26-MAIN
  5
803
 10
0.0
 20
0.0
 30
0.0
 70
   128
 71
   -35
 72
    37
 73
    34
  0
VERTEX
  8
12STG26-MAIN
  5
804
 10
0.0
 20
0.0
 30
0.0
 70
   128
 71
    36
 72
   -37
 73
    35
  0
VERTEX
  8
12STG26-MAIN
  5
805
 10
0.0
 20
0.0
 30
0.0
 70
   128
 71
   -36
 72
    38
 73
    37
  0
VERTEX
  8
12STG26-MAIN
  5
806
 10
0.0
 20
0.0
 30
0.0
 70
   128
 71
    39
 72
   -38
 73
    36
  0
VERTEX
  8
12STG26-MAIN
  5
807
 10
0.0
 20
0.0
 30
0.0
 70
   128
 71
   -39
 72
    33
 73
    38
  0
VERTEX
  8
12STG26-MAIN
  5
808
 10
0.0
 20
0.0
 30
0.0
 70
   128
 71
    40
 72
   -33
 73
    39
  0
VERTEX
  8
12STG26-MAIN
  5
809
 10
0.0
 20
0.0
 30
0.0
 70
   128
 71
   -43
 72
    42
 73
    41
  0
VERTEX
  8
12STG26-MAIN
  5
80A
 10
0.0
 20
0.0
 30
0.0
 70
   128
 71
    43
 72
    45
 73
   -42
  0
VERTEX
  8
12STG26-MAIN
  5
80B
 10
0.0
 20
0.0
 30
0.0
 70
   128
 71
   -45
 72
    46
 73
    42
  0
VERTEX
  8
12STG26-MAIN
  5
80C
 10
0.0
 20
0.0
 30
0.0
 70
   128
 71
    45
 72
    44
 73
   -46
  0
VERTEX
  8
12STG26-MAIN
  5
80D
 10
0.0
 20
0.0
 30
0.0
 70
   128
 71
   -44
 72
    48
 73
    46
  0
VERTEX
  8
12STG26-MAIN
  5
80E
 10
0.0
 20
0.0
 30
0.0
 70
   128
 71
    44
 72
    47
 73
   -48
  0
VERTEX
  8
12STG26-MAIN
  5
80F
 10
0.0
 20
0.0
 30
0.0
 70
   128
 71
   -47
 72
    69
 73
    48
  0
VERTEX
  8
12STG26-MAIN
  5
810
 10
0.0
 20
0.0
 30
0.0
 70
   128
 71
    47
 72
    49
 73
   -69
  0
VERTEX
  8
12STG26-MAIN
  5
811
 10
0.0
 20
0.0
 30
0.0
 70
   128
 71
   -50
 72
    69
 73
    49
  0
VERTEX
  8
12STG26-MAIN
  5
812
 10
0.0
 20
0.0
 30
0.0
 70
   128
 71
    50
 72
    70
 73
   -69
  0
VERTEX
  8
12STG26-MAIN
  5
813
 10
0.0
 20
0.0
 30
0.0
 70
   128
 71
   -51
 72
    70
 73
    50
  0
VERTEX
  8
12STG26-MAIN
  5
814
 10
0.0
 20
0.0
 30
0.0
 70
   128
 71
    51
 72
    52
 73
   -70
  0
VERTEX
  8
12STG26-MAIN
  5
815
 10
0.0
 20
0.0
 30
0.0
 70
   128
 71
   -53
 72
    52
 73
    51
  0
VERTEX
  8
12STG26-MAIN
  5
816
 10
0.0
 20
0.0
 30
0.0
 70
   128
 71
    53
 72
    71
 73
   -52
  0
VERTEX
  8
12STG26-MAIN
  5
817
 10
0.0
 20
0.0
 30
0.0
 70
   128
 71
   -54
 72
    71
 73
    53
  0
VERTEX
  8
12STG26-MAIN
  5
818
 10
0.0
 20
0.0
 30
0.0
 70
   128
 71
    54
 72
    55
 73
   -71
  0
VERTEX
  8
12STG26-MAIN
  5
819
 10
0.0
 20
0.0
 30
0.0
 70
   128
 71
   -56
 72
    55
 73
    54
  0
VERTEX
  8
12STG26-MAIN
  5
81A
 10
0.0
 20
0.0
 30
0.0
 70
   128
 71
    56
 72
    73
 73
   -55
  0
VERTEX
  8
12STG26-MAIN
  5
81B
 10
0.0
 20
0.0
 30
0.0
 70
   128
 71
   -57
 72
    73
 73
    56
  0
VERTEX
  8
12STG26-MAIN
  5
81C
 10
0.0
 20
0.0
 30
0.0
 70
   128
 71
    57
 72
    76
 73
   -73
  0
VERTEX
  8
12STG26-MAIN
  5
81D
 10
0.0
 20
0.0
 30
0.0
 70
   128
 71
   -58
 72
    76
 73
    57
  0
VERTEX
  8
12STG26-MAIN
  5
81E
 10
0.0
 20
0.0
 30
0.0
 70
   128
 71
    58
 72
    75
 73
   -76
  0
VERTEX
  8
12STG26-MAIN
  5
81F
 10
0.0
 20
0.0
 30
0.0
 70
   128
 71
   -58
 72
    79
 73
    75
  0
VERTEX
  8
12STG26-MAIN
  5
820
 10
0.0
 20
0.0
 30
0.0
 70
   128
 71
    58
 72
    59
 73
   -79
  0
VERTEX
  8
12STG26-MAIN
  5
821
 10
0.0
 20
0.0
 30
0.0
 70
   128
 71
   -59
 72
    60
 73
    79
  0
VERTEX
  8
12STG26-MAIN
  5
822
 10
0.0
 20
0.0
 30
0.0
 70
   128
 71
    59
 72
    62
 73
   -60
  0
VERTEX
  8
12STG26-MAIN
  5
823
 10
0.0
 20
0.0
 30
0.0
 70
   128
 71
   -62
 72
    63
 73
    60
  0
VERTEX
  8
12STG26-MAIN
  5
824
 10
0.0
 20
0.0
 30
0.0
 70
   128
 71
    62
 72
    61
 73
   -63
  0
VERTEX
  8
12STG26-MAIN
  5
825
 10
0.0
 20
0.0
 30
0.0
 70
   128
 71
   -61
 72
    80
 73
    63
  0
VERTEX
  8
12STG26-MAIN
  5
826
 10
0.0
 20
0.0
 30
0.0
 70
   128
 71
    61
 72
    64
 73
   -80
  0
VERTEX
  8
12STG26-MAIN
  5
827
 10
0.0
 20
0.0
 30
0.0
 70
   128
 71
   -64
 72
    82
 73
    80
  0
VERTEX
  8
12STG26-MAIN
  5
828
 10
0.0
 20
0.0
 30
0.0
 70
   128
 71
    64
 72
    65
 73
   -82
  0
VERTEX
  8
12STG26-MAIN
  5
829
 10
0.0
 20
0.0
 30
0.0
 70
   128
 71
   -41
 72
    87
 73
    84
  0
VERTEX
  8
12STG26-MAIN
  5
82A
 10
0.0
 20
0.0
 30
0.0
 70
   128
 71
    41
 72
    42
 73
   -87
  0
VERTEX
  8
12STG26-MAIN
  5
82B
 10
0.0
 20
0.0
 30
0.0
 70
   128
 71
   -42
 72
    66
 73
    87
  0
VERTEX
  8
12STG26-MAIN
  5
82C
 10
0.0
 20
0.0
 30
0.0
 70
   128
 71
    42
 72
    46
 73
   -66
  0
VERTEX
  8
12STG26-MAIN
  5
82D
 10
0.0
 20
0.0
 30
0.0
 70
   128
 71
   -46
 72
    67
 73
    66
  0
VERTEX
  8
12STG26-MAIN
  5
82E
 10
0.0
 20
0.0
 30
0.0
 70
   128
 71
    46
 72
    48
 73
   -67
  0
VERTEX
  8
12STG26-MAIN
  5
82F
 10
0.0
 20
0.0
 30
0.0
 70
   128
 71
   -48
 72
    68
 73
    67
  0
VERTEX
  8
12STG26-MAIN
  5
830
 10
0.0
 20
0.0
 30
0.0
 70
   128
 71
    48
 72
    69
 73
   -68
  0
VERTEX
  8
12STG26-MAIN
  5
831
 10
0.0
 20
0.0
 30
0.0
 70
   128
 71
   -69
 72
    91
 73
    68
  0
VERTEX
  8
12STG26-MAIN
  5
832
 10
0.0
 20
0.0
 30
0.0
 70
   128
 71
    69
 72
    70
 73
   -91
  0
VERTEX
  8
12STG26-MAIN
  5
833
 10
0.0
 20
0.0
 30
0.0
 70
   128
 71
   -70
 72
    94
 73
    91
  0
VERTEX
  8
12STG26-MAIN
  5
834
 10
0.0
 20
0.0
 30
0.0
 70
   128
 71
    70
 72
    52
 73
   -94
  0
VERTEX
  8
12STG26-MAIN
  5
835
 10
0.0
 20
0.0
 30
0.0
 70
   128
 71
   -71
 72
    94
 73
    52
  0
VERTEX
  8
12STG26-MAIN
  5
836
 10
0.0
 20
0.0
 30
0.0
 70
   128
 71
    71
 72
    72
 73
   -94
  0
VERTEX
  8
12STG26-MAIN
  5
837
 10
0.0
 20
0.0
 30
0.0
 70
   128
 71
   -55
 72
    72
 73
    71
  0
VERTEX
  8
12STG26-MAIN
  5
838
 10
0.0
 20
0.0
 30
0.0
 70
   128
 71
    55
 72
    98
 73
   -72
  0
VERTEX
  8
12STG26-MAIN
  5
839
 10
0.0
 20
0.0
 30
0.0
 70
   128
 71
   -73
 72
    98
 73
    55
  0
VERTEX
  8
12STG26-MAIN
  5
83A
 10
0.0
 20
0.0
 30
0.0
 70
   128
 71
    73
 72
    97
 73
   -98
  0
VERTEX
  8
12STG26-MAIN
  5
83B
 10
0.0
 20
0.0
 30
0.0
 70
   128
 71
   -73
 72
    74
 73
    97
  0
VERTEX
  8
12STG26-MAIN
  5
83C
 10
0.0
 20
0.0
 30
0.0
 70
   128
 71
    73
 72
    76
 73
   -74
  0
VERTEX
  8
12STG26-MAIN
  5
83D
 10
0.0
 20
0.0
 30
0.0
 70
   128
 71
   -76
 72
    77
 73
    74
  0
VERTEX
  8
12STG26-MAIN
  5
83E
 10
0.0
 20
0.0
 30
0.0
 70
   128
 71
    76
 72
    75
 73
   -77
  0
VERTEX
  8
12STG26-MAIN
  5
83F
 10
0.0
 20
0.0
 30
0.0
 70
   128
 71
   -75
 72
    78
 73
    77
  0
VERTEX
  8
12STG26-MAIN
  5
840
 10
0.0
 20
0.0
 30
0.0
 70
   128
 71
    75
 72
    79
 73
   -78
  0
VERTEX
  8
12STG26-MAIN
  5
841
 10
0.0
 20
0.0
 30
0.0
 70
   128
 71
   -79
 72
   102
 73
    78
  0
VERTEX
  8
12STG26-MAIN
  5
842
 10
0.0
 20
0.0
 30
0.0
 70
   128
 71
    79
 72
    60
 73
  -102
  0
VERTEX
  8
12STG26-MAIN
  5
843
 10
0.0
 20
0.0
 30
0.0
 70
   128
 71
   -60
 72
   105
 73
   102
  0
VERTEX
  8
12STG26-MAIN
  5
844
 10
0.0
 20
0.0
 30
0.0
 70
   128
 71
    60
 72
    63
 73
  -105
  0
VERTEX
  8
12STG26-MAIN
  5
845
 10
0.0
 20
0.0
 30
0.0
 70
   128
 71
   -63
 72
   108
 73
   105
  0
VERTEX
  8
12STG26-MAIN
  5
846
 10
0.0
 20
0.0
 30
0.0
 70
   128
 71
    63
 72
    80
 73
  -108
  0
VERTEX
  8
12STG26-MAIN
  5
847
 10
0.0
 20
0.0
 30
0.0
 70
   128
 71
   -80
 72
    81
 73
   108
  0
VERTEX
  8
12STG26-MAIN
  5
848
 10
0.0
 20
0.0
 30
0.0
 70
   128
 71
    80
 72
    82
 73
   -81
  0
VERTEX
  8
12STG26-MAIN
  5
849
 10
0.0
 20
0.0
 30
0.0
 70
   128
 71
   -84
 72
    85
 73
    83
  0
VERTEX
  8
12STG26-MAIN
  5
84A
 10
0.0
 20
0.0
 30
0.0
 70
   128
 71
    84
 72
    87
 73
   -85
  0
VERTEX
  8
12STG26-MAIN
  5
84B
 10
0.0
 20
0.0
 30
0.0
 70
   128
 71
   -87
 72
    86
 73
    85
  0
VERTEX
  8
12STG26-MAIN
  5
84C
 10
0.0
 20
0.0
 30
0.0
 70
   128
 71
    87
 72
    66
 73
   -86
  0
VERTEX
  8
12STG26-MAIN
  5
84D
 10
0.0
 20
0.0
 30
0.0
 70
   128
 71
   -66
 72
    88
 73
    86
  0
VERTEX
  8
12STG26-MAIN
  5
84E
 10
0.0
 20
0.0
 30
0.0
 70
   128
 71
    66
 72
    67
 73
   -88
  0
VERTEX
  8
12STG26-MAIN
  5
84F
 10
0.0
 20
0.0
 30
0.0
 70
   128
 71
   -67
 72
    89
 73
    88
  0
VERTEX
  8
12STG26-MAIN
  5
850
 10
0.0
 20
0.0
 30
0.0
 70
   128
 71
    67
 72
    68
 73
   -89
  0
VERTEX
  8
12STG26-MAIN
  5
851
 10
0.0
 20
0.0
 30
0.0
 70
   128
 71
   -68
 72
    90
 73
    89
  0
VERTEX
  8
12STG26-MAIN
  5
852
 10
0.0
 20
0.0
 30
0.0
 70
   128
 71
    68
 72
    91
 73
   -90
  0
VERTEX
  8
12STG26-MAIN
  5
853
 10
0.0
 20
0.0
 30
0.0
 70
   128
 71
   -91
 72
    92
 73
    90
  0
VERTEX
  8
12STG26-MAIN
  5
854
 10
0.0
 20
0.0
 30
0.0
 70
   128
 71
    91
 72
    94
 73
   -92
  0
VERTEX
  8
12STG26-MAIN
  5
855
 10
0.0
 20
0.0
 30
0.0
 70
   128
 71
   -94
 72
    93
 73
    92
  0
VERTEX
  8
12STG26-MAIN
  5
856
 10
0.0
 20
0.0
 30
0.0
 70
   128
 71
    94
 72
    72
 73
   -93
  0
VERTEX
  8
12STG26-MAIN
  5
857
 10
0.0
 20
0.0
 30
0.0
 70
   128
 71
   -72
 72
    95
 73
    93
  0
VERTEX
  8
12STG26-MAIN
  5
858
 10
0.0
 20
0.0
 30
0.0
 70
   128
 71
    72
 72
    98
 73
   -95
  0
VERTEX
  8
12STG26-MAIN
  5
859
 10
0.0
 20
0.0
 30
0.0
 70
   128
 71
   -98
 72
    96
 73
    95
  0
VERTEX
  8
12STG26-MAIN
  5
85A
 10
0.0
 20
0.0
 30
0.0
 70
   128
 71
    98
 72
    97
 73
   -96
  0
VERTEX
  8
12STG26-MAIN
  5
85B
 10
0.0
 20
0.0
 30
0.0
 70
   128
 71
   -97
 72
    99
 73
    96
  0
VERTEX
  8
12STG26-MAIN
  5
85C
 10
0.0
 20
0.0
 30
0.0
 70
   128
 71
    97
 72
    74
 73
   -99
  0
VERTEX
  8
12STG26-MAIN
  5
85D
 10
0.0
 20
0.0
 30
0.0
 70
   128
 71
   -74
 72
   100
 73
    99
  0
VERTEX
  8
12STG26-MAIN
  5
85E
 10
0.0
 20
0.0
 30
0.0
 70
   128
 71
    74
 72
    77
 73
  -100
  0
VERTEX
  8
12STG26-MAIN
  5
85F
 10
0.0
 20
0.0
 30
0.0
 70
   128
 71
   -77
 72
   101
 73
   100
  0
VERTEX
  8
12STG26-MAIN
  5
860
 10
0.0
 20
0.0
 30
0.0
 70
   128
 71
    77
 72
    78
 73
  -101
  0
VERTEX
  8
12STG26-MAIN
  5
861
 10
0.0
 20
0.0
 30
0.0
 70
   128
 71
   -78
 72
   103
 73
   101
  0
VERTEX
  8
12STG26-MAIN
  5
862
 10
0.0
 20
0.0
 30
0.0
 70
   128
 71
    78
 72
   102
 73
  -103
  0
VERTEX
  8
12STG26-MAIN
  5
863
 10
0.0
 20
0.0
 30
0.0
 70
   128
 71
  -102
 72
   104
 73
   103
  0
VERTEX
  8
12STG26-MAIN
  5
864
 10
0.0
 20
0.0
 30
0.0
 70
   128
 71
   102
 72
   105
 73
  -104
  0
VERTEX
  8
12STG26-MAIN
  5
865
 10
0.0
 20
0.0
 30
0.0
 70
   128
 71
  -105
 72
   106
 73
   104
  0
VERTEX
  8
12STG26-MAIN
  5
866
 10
0.0
 20
0.0
 30
0.0
 70
   128
 71
   105
 72
   108
 73
  -106
  0
VERTEX
  8
12STG26-MAIN
  5
867
 10
0.0
 20
0.0
 30
0.0
 70
   128
 71
  -108
 72
   107
 73
   106
  0
VERTEX
  8
12STG26-MAIN
  5
868
 10
0.0
 20
0.0
 30
0.0
 70
   128
 71
   108
 72
    81
 73
  -107
  0
VERTEX
  8
12STG26-MAIN
  5
869
 10
0.0
 20
0.0
 30
0.0
 70
   128
 71
  -110
 72
   135
 73
   109
  0
VERTEX
  8
12STG26-MAIN
  5
86A
 10
0.0
 20
0.0
 30
0.0
 70
   128
 71
   133
 72
  -135
 73
   110
  0
VERTEX
  8
12STG26-MAIN
  5
86B
 10
0.0
 20
0.0
 30
0.0
 70
   128
 71
  -109
 72
   136
 73
   111
  0
VERTEX
  8
12STG26-MAIN
  5
86C
 10
0.0
 20
0.0
 30
0.0
 70
   128
 71
   135
 72
  -136
 73
   109
  0
VERTEX
  8
12STG26-MAIN
  5
86D
 10
0.0
 20
0.0
 30
0.0
 70
   128
 71
  -111
 72
   114
 73
   113
  0
VERTEX
  8
12STG26-MAIN
  5
86E
 10
0.0
 20
0.0
 30
0.0
 70
   128
 71
   136
 72
  -114
 73
   111
  0
VERTEX
  8
12STG26-MAIN
  5
86F
 10
0.0
 20
0.0
 30
0.0
 70
   128
 71
  -113
 72
   139
 73
   112
  0
VERTEX
  8
12STG26-MAIN
  5
870
 10
0.0
 20
0.0
 30
0.0
 70
   128
 71
   114
 72
  -139
 73
   113
  0
VERTEX
  8
12STG26-MAIN
  5
871
 10
0.0
 20
0.0
 30
0.0
 70
   128
 71
  -112
 72
   141
 73
   116
  0
VERTEX
  8
12STG26-MAIN
  5
872
 10
0.0
 20
0.0
 30
0.0
 70
   128
 71
   139
 72
  -141
 73
   112
  0
VERTEX
  8
12STG26-MAIN
  5
873
 10
0.0
 20
0.0
 30
0.0
 70
   128
 71
  -116
 72
   140
 73
   115
  0
VERTEX
  8
12STG26-MAIN
  5
874
 10
0.0
 20
0.0
 30
0.0
 70
   128
 71
   141
 72
  -140
 73
   116
  0
VERTEX
  8
12STG26-MAIN
  5
875
 10
0.0
 20
0.0
 30
0.0
 70
   128
 71
  -115
 72
   117
 73
   119
  0
VERTEX
  8
12STG26-MAIN
  5
876
 10
0.0
 20
0.0
 30
0.0
 70
   128
 71
   140
 72
  -117
 73
   115
  0
VERTEX
  8
12STG26-MAIN
  5
877
 10
0.0
 20
0.0
 30
0.0
 70
   128
 71
  -119
 72
   120
 73
   118
  0
VERTEX
  8
12STG26-MAIN
  5
878
 10
0.0
 20
0.0
 30
0.0
 70
   128
 71
   117
 72
  -120
 73
   119
  0
VERTEX
  8
12STG26-MAIN
  5
879
 10
0.0
 20
0.0
 30
0.0
 70
   128
 71
  -118
 72
   121
 73
   122
  0
VERTEX
  8
12STG26-MAIN
  5
87A
 10
0.0
 20
0.0
 30
0.0
 70
   128
 71
   120
 72
  -121
 73
   118
  0
VERTEX
  8
12STG26-MAIN
  5
87B
 10
0.0
 20
0.0
 30
0.0
 70
   128
 71
  -122
 72
   144
 73
   123
  0
VERTEX
  8
12STG26-MAIN
  5
87C
 10
0.0
 20
0.0
 30
0.0
 70
   128
 71
   121
 72
  -144
 73
   122
  0
VERTEX
  8
12STG26-MAIN
  5
87D
 10
0.0
 20
0.0
 30
0.0
 70
   128
 71
  -123
 72
   125
 73
   124
  0
VERTEX
  8
12STG26-MAIN
  5
87E
 10
0.0
 20
0.0
 30
0.0
 70
   128
 71
   144
 72
  -125
 73
   123
  0
VERTEX
  8
12STG26-MAIN
  5
87F
 10
0.0
 20
0.0
 30
0.0
 70
   128
 71
  -124
 72
   146
 73
   127
  0
VERTEX
  8
12STG26-MAIN
  5
880
 10
0.0
 20
0.0
 30
0.0
 70
   128
 71
   125
 72
  -146
 73
   124
  0
VERTEX
  8
12STG26-MAIN
  5
881
 10
0.0
 20
0.0
 30
0.0
 70
   128
 71
  -127
 72
   128
 73
   126
  0
VERTEX
  8
12STG26-MAIN
  5
882
 10
0.0
 20
0.0
 30
0.0
 70
   128
 71
   146
 72
  -128
 73
   127
  0
VERTEX
  8
12STG26-MAIN
  5
883
 10
0.0
 20
0.0
 30
0.0
 70
   128
 71
  -126
 72
   147
 73
   130
  0
VERTEX
  8
12STG26-MAIN
  5
884
 10
0.0
 20
0.0
 30
0.0
 70
   128
 71
   128
 72
  -147
 73
   126
  0
VERTEX
  8
12STG26-MAIN
  5
885
 10
0.0
 20
0.0
 30
0.0
 70
   128
 71
  -130
 72
   149
 73
   129
  0
VERTEX
  8
12STG26-MAIN
  5
886
 10
0.0
 20
0.0
 30
0.0
 70
   128
 71
   147
 72
  -149
 73
   130
  0
VERTEX
  8
12STG26-MAIN
  5
887
 10
0.0
 20
0.0
 30
0.0
 70
   128
 71
  -129
 72
   132
 73
   131
  0
VERTEX
  8
12STG26-MAIN
  5
888
 10
0.0
 20
0.0
 30
0.0
 70
   128
 71
   149
 72
  -132
 73
   129
  0
VERTEX
  8
12STG26-MAIN
  5
889
 10
0.0
 20
0.0
 30
0.0
 70
   128
 71
  -133
 72
   156
 73
   135
  0
VERTEX
  8
12STG26-MAIN
  5
88A
 10
0.0
 20
0.0
 30
0.0
 70
   128
 71
   152
 72
  -156
 73
   133
  0
VERTEX
  8
12STG26-MAIN
  5
88B
 10
0.0
 20
0.0
 30
0.0
 70
   128
 71
  -135
 72
   134
 73
   136
  0
VERTEX
  8
12STG26-MAIN
  5
88C
 10
0.0
 20
0.0
 30
0.0
 70
   128
 71
   156
 72
  -134
 73
   135
  0
VERTEX
  8
12STG26-MAIN
  5
88D
 10
0.0
 20
0.0
 30
0.0
 70
   128
 71
  -136
 72
   158
 73
   114
  0
VERTEX
  8
12STG26-MAIN
  5
88E
 10
0.0
 20
0.0
 30
0.0
 70
   128
 71
   134
 72
  -158
 73
   136
  0
VERTEX
  8
12STG26-MAIN
  5
88F
 10
0.0
 20
0.0
 30
0.0
 70
   128
 71
  -114
 72
   137
 73
   139
  0
VERTEX
  8
12STG26-MAIN
  5
890
 10
0.0
 20
0.0
 30
0.0
 70
   128
 71
   158
 72
  -137
 73
   114
  0
VERTEX
  8
12STG26-MAIN
  5
891
 10
0.0
 20
0.0
 30
0.0
 70
   128
 71
  -139
 72
   138
 73
   141
  0
VERTEX
  8
12STG26-MAIN
  5
892
 10
0.0
 20
0.0
 30
0.0
 70
   128
 71
   137
 72
  -138
 73
   139
  0
VERTEX
  8
12STG26-MAIN
  5
893
 10
0.0
 20
0.0
 30
0.0
 70
   128
 71
  -141
 72
   163
 73
   140
  0
VERTEX
  8
12STG26-MAIN
  5
894
 10
0.0
 20
0.0
 30
0.0
 70
   128
 71
   138
 72
  -163
 73
   141
  0
VERTEX
  8
12STG26-MAIN
  5
895
 10
0.0
 20
0.0
 30
0.0
 70
   128
 71
  -140
 72
   162
 73
   117
  0
VERTEX
  8
12STG26-MAIN
  5
896
 10
0.0
 20
0.0
 30
0.0
 70
   128
 71
   163
 72
  -162
 73
   140
  0
VERTEX
  8
12STG26-MAIN
  5
897
 10
0.0
 20
0.0
 30
0.0
 70
   128
 71
  -120
 72
   162
 73
   143
  0
VERTEX
  8
12STG26-MAIN
  5
898
 10
0.0
 20
0.0
 30
0.0
 70
   128
 71
   117
 72
  -162
 73
   120
  0
VERTEX
  8
12STG26-MAIN
  5
899
 10
0.0
 20
0.0
 30
0.0
 70
   128
 71
  -121
 72
   143
 73
   142
  0
VERTEX
  8
12STG26-MAIN
  5
89A
 10
0.0
 20
0.0
 30
0.0
 70
   128
 71
   120
 72
  -143
 73
   121
  0
VERTEX
  8
12STG26-MAIN
  5
89B
 10
0.0
 20
0.0
 30
0.0
 70
   128
 71
  -144
 72
   142
 73
   166
  0
VERTEX
  8
12STG26-MAIN
  5
89C
 10
0.0
 20
0.0
 30
0.0
 70
   128
 71
   121
 72
  -142
 73
   144
  0
VERTEX
  8
12STG26-MAIN
  5
89D
 10
0.0
 20
0.0
 30
0.0
 70
   128
 71
  -144
 72
   145
 73
   125
  0
VERTEX
  8
12STG26-MAIN
  5
89E
 10
0.0
 20
0.0
 30
0.0
 70
   128
 71
   166
 72
  -145
 73
   144
  0
VERTEX
  8
12STG26-MAIN
  5
89F
 10
0.0
 20
0.0
 30
0.0
 70
   128
 71
  -125
 72
   170
 73
   146
  0
VERTEX
  8
12STG26-MAIN
  5
8A0
 10
0.0
 20
0.0
 30
0.0
 70
   128
 71
   145
 72
  -170
 73
   125
  0
VERTEX
  8
12STG26-MAIN
  5
8A1
 10
0.0
 20
0.0
 30
0.0
 70
   128
 71
  -146
 72
   148
 73
   128
  0
VERTEX
  8
12STG26-MAIN
  5
8A2
 10
0.0
 20
0.0
 30
0.0
 70
   128
 71
   170
 72
  -148
 73
   146
  0
VERTEX
  8
12STG26-MAIN
  5
8A3
 10
0.0
 20
0.0
 30
0.0
 70
   128
 71
  -128
 72
   174
 73
   147
  0
VERTEX
  8
12STG26-MAIN
  5
8A4
 10
0.0
 20
0.0
 30
0.0
 70
   128
 71
   148
 72
  -174
 73
   128
  0
VERTEX
  8
12STG26-MAIN
  5
8A5
 10
0.0
 20
0.0
 30
0.0
 70
   128
 71
  -147
 72
   150
 73
   149
  0
VERTEX
  8
12STG26-MAIN
  5
8A6
 10
0.0
 20
0.0
 30
0.0
 70
   128
 71
   174
 72
  -150
 73
   147
  0
VERTEX
  8
12STG26-MAIN
  5
8A7
 10
0.0
 20
0.0
 30
0.0
 70
   128
 71
  -149
 72
   151
 73
   132
  0
VERTEX
  8
12STG26-MAIN
  5
8A8
 10
0.0
 20
0.0
 30
0.0
 70
   128
 71
   150
 72
  -151
 73
   149
  0
VERTEX
  8
12STG26-MAIN
  5
8A9
 10
0.0
 20
0.0
 30
0.0
 70
   128
 71
  -152
 72
   154
 73
   156
  0
VERTEX
  8
12STG26-MAIN
  5
8AA
 10
0.0
 20
0.0
 30
0.0
 70
   128
 71
   153
 72
  -154
 73
   152
  0
VERTEX
  8
12STG26-MAIN
  5
8AB
 10
0.0
 20
0.0
 30
0.0
 70
   128
 71
  -156
 72
   155
 73
   134
  0
VERTEX
  8
12STG26-MAIN
  5
8AC
 10
0.0
 20
0.0
 30
0.0
 70
   128
 71
   154
 72
  -155
 73
   156
  0
VERTEX
  8
12STG26-MAIN
  5
8AD
 10
0.0
 20
0.0
 30
0.0
 70
   128
 71
  -134
 72
   157
 73
   158
  0
VERTEX
  8
12STG26-MAIN
  5
8AE
 10
0.0
 20
0.0
 30
0.0
 70
   128
 71
   155
 72
  -157
 73
   134
  0
VERTEX
  8
12STG26-MAIN
  5
8AF
 10
0.0
 20
0.0
 30
0.0
 70
   128
 71
  -158
 72
   159
 73
   137
  0
VERTEX
  8
12STG26-MAIN
  5
8B0
 10
0.0
 20
0.0
 30
0.0
 70
   128
 71
   157
 72
  -159
 73
   158
  0
VERTEX
  8
12STG26-MAIN
  5
8B1
 10
0.0
 20
0.0
 30
0.0
 70
   128
 71
  -137
 72
   161
 73
   138
  0
VERTEX
  8
12STG26-MAIN
  5
8B2
 10
0.0
 20
0.0
 30
0.0
 70
   128
 71
   159
 72
  -161
 73
   137
  0
VERTEX
  8
12STG26-MAIN
  5
8B3
 10
0.0
 20
0.0
 30
0.0
 70
   128
 71
  -163
 72
   161
 73
   160
  0
VERTEX
  8
12STG26-MAIN
  5
8B4
 10
0.0
 20
0.0
 30
0.0
 70
   128
 71
   138
 72
  -161
 73
   163
  0
VERTEX
  8
12STG26-MAIN
  5
8B5
 10
0.0
 20
0.0
 30
0.0
 70
   128
 71
  -162
 72
   160
 73
   164
  0
VERTEX
  8
12STG26-MAIN
  5
8B6
 10
0.0
 20
0.0
 30
0.0
 70
   128
 71
   163
 72
  -160
 73
   162
  0
VERTEX
  8
12STG26-MAIN
  5
8B7
 10
0.0
 20
0.0
 30
0.0
 70
   128
 71
  -143
 72
   164
 73
   165
  0
VERTEX
  8
12STG26-MAIN
  5
8B8
 10
0.0
 20
0.0
 30
0.0
 70
   128
 71
   162
 72
  -164
 73
   143
  0
VERTEX
  8
12STG26-MAIN
  5
8B9
 10
0.0
 20
0.0
 30
0.0
 70
   128
 71
  -142
 72
   165
 73
   167
  0
VERTEX
  8
12STG26-MAIN
  5
8BA
 10
0.0
 20
0.0
 30
0.0
 70
   128
 71
   143
 72
  -165
 73
   142
  0
VERTEX
  8
12STG26-MAIN
  5
8BB
 10
0.0
 20
0.0
 30
0.0
 70
   128
 71
  -166
 72
   167
 73
   168
  0
VERTEX
  8
12STG26-MAIN
  5
8BC
 10
0.0
 20
0.0
 30
0.0
 70
   128
 71
   142
 72
  -167
 73
   166
  0
VERTEX
  8
12STG26-MAIN
  5
8BD
 10
0.0
 20
0.0
 30
0.0
 70
   128
 71
  -145
 72
   168
 73
   169
  0
VERTEX
  8
12STG26-MAIN
  5
8BE
 10
0.0
 20
0.0
 30
0.0
 70
   128
 71
   166
 72
  -168
 73
   145
  0
VERTEX
  8
12STG26-MAIN
  5
8BF
 10
0.0
 20
0.0
 30
0.0
 70
   128
 71
  -170
 72
   169
 73
   171
  0
VERTEX
  8
12STG26-MAIN
  5
8C0
 10
0.0
 20
0.0
 30
0.0
 70
   128
 71
   145
 72
  -169
 73
   170
  0
VERTEX
  8
12STG26-MAIN
  5
8C1
 10
0.0
 20
0.0
 30
0.0
 70
   128
 71
  -170
 72
   173
 73
   148
  0
VERTEX
  8
12STG26-MAIN
  5
8C2
 10
0.0
 20
0.0
 30
0.0
 70
   128
 71
   171
 72
  -173
 73
   170
  0
VERTEX
  8
12STG26-MAIN
  5
8C3
 10
0.0
 20
0.0
 30
0.0
 70
   128
 71
  -148
 72
   172
 73
   174
  0
VERTEX
  8
12STG26-MAIN
  5
8C4
 10
0.0
 20
0.0
 30
0.0
 70
   128
 71
   173
 72
  -172
 73
   148
  0
VERTEX
  8
12STG26-MAIN
  5
8C5
 10
0.0
 20
0.0
 30
0.0
 70
   128
 71
  -174
 72
   175
 73
   150
  0
VERTEX
  8
12STG26-MAIN
  5
8C6
 10
0.0
 20
0.0
 30
0.0
 70
   128
 71
   172
 72
  -175
 73
   174
  0
VERTEX
  8
12STG26-MAIN
  5
8C7
 10
0.0
 20
0.0
 30
0.0
 70
   128
 71
  -150
 72
   176
 73
   151
  0
VERTEX
  8
12STG26-MAIN
  5
8C8
 10
0.0
 20
0.0
 30
0.0
 70
   128
 71
   175
 72
  -176
 73
   150
  0
VERTEX
  8
12STG26-MAIN
  5
8C9
 10
0.0
 20
0.0
 30
0.0
 70
   128
 71
  -184
 72
   182
 73
   177
  0
VERTEX
  8
12STG26-MAIN
  5
8CA
 10
0.0
 20
0.0
 30
0.0
 70
   128
 71
   184
 72
   185
 73
  -182
  0
VERTEX
  8
12STG26-MAIN
  5
8CB
 10
0.0
 20
0.0
 30
0.0
 70
   128
 71
  -177
 72
   181
 73
   180
  0
VERTEX
  8
12STG26-MAIN
  5
8CC
 10
0.0
 20
0.0
 30
0.0
 70
   128
 71
   177
 72
   182
 73
  -181
  0
VERTEX
  8
12STG26-MAIN
  5
8CD
 10
0.0
 20
0.0
 30
0.0
 70
   128
 71
  -180
 72
   179
 73
   178
  0
VERTEX
  8
12STG26-MAIN
  5
8CE
 10
0.0
 20
0.0
 30
0.0
 70
   128
 71
   180
 72
   181
 73
  -179
  0
VERTEX
  8
12STG26-MAIN
  5
8CF
 10
0.0
 20
0.0
 30
0.0
 70
   128
 71
  -177
 72
   181
 73
   180
  0
VERTEX
  8
12STG26-MAIN
  5
8D0
 10
0.0
 20
0.0
 30
0.0
 70
   128
 71
   177
 72
   182
 73
  -181
  0
VERTEX
  8
12STG26-MAIN
  5
8D1
 10
0.0
 20
0.0
 30
0.0
 70
   128
 71
  -180
 72
   179
 73
   178
  0
VERTEX
  8
12STG26-MAIN
  5
8D2
 10
0.0
 20
0.0
 30
0.0
 70
   128
 71
   180
 72
   181
 73
  -179
  0
VERTEX
  8
12STG26-MAIN
  5
8D3
 10
0.0
 20
0.0
 30
0.0
 70
   128
 71
  -183
 72
   184
 73
   188
  0
VERTEX
  8
12STG26-MAIN
  5
8D4
 10
0.0
 20
0.0
 30
0.0
 70
   128
 71
   185
 72
  -184
 73
   183
  0
VERTEX
  8
12STG26-MAIN
  5
8D5
 10
0.0
 20
0.0
 30
0.0
 70
   128
 71
  -187
 72
   188
 73
   186
  0
VERTEX
  8
12STG26-MAIN
  5
8D6
 10
0.0
 20
0.0
 30
0.0
 70
   128
 71
   183
 72
  -188
 73
   187
  0
VERTEX
  8
12STG26-MAIN
  5
8D7
 10
0.0
 20
0.0
 30
0.0
 70
   128
 71
  -189
 72
   193
 73
   192
  0
VERTEX
  8
12STG26-MAIN
  5
8D8
 10
0.0
 20
0.0
 30
0.0
 70
   128
 71
   190
 72
  -193
 73
   189
  0
VERTEX
  8
12STG26-MAIN
  5
8D9
 10
0.0
 20
0.0
 30
0.0
 70
   128
 71
  -192
 72
   194
 73
   191
  0
VERTEX
  8
12STG26-MAIN
  5
8DA
 10
0.0
 20
0.0
 30
0.0
 70
   128
 71
   193
 72
  -194
 73
   192
  0
VERTEX
  8
12STG26-MAIN
  5
8DB
 10
0.0
 20
0.0
 30
0.0
 70
   128
 71
  -191
 72
   197
 73
   196
  0
VERTEX
  8
12STG26-MAIN
  5
8DC
 10
0.0
 20
0.0
 30
0.0
 70
   128
 71
   194
 72
  -197
 73
   191
  0
VERTEX
  8
12STG26-MAIN
  5
8DD
 10
0.0
 20
0.0
 30
0.0
 70
   128
 71
  -196
 72
   198
 73
   195
  0
VERTEX
  8
12STG26-MAIN
  5
8DE
 10
0.0
 20
0.0
 30
0.0
 70
   128
 71
   197
 72
  -198
 73
   196
  0
VERTEX
  8
12STG26-MAIN
  5
8DF
 10
0.0
 20
0.0
 30
0.0
 70
   128
 71
  -195
 72
   200
 73
   199
  0
VERTEX
  8
12STG26-MAIN
  5
8E0
 10
0.0
 20
0.0
 30
0.0
 70
   128
 71
   198
 72
  -200
 73
   195
  0
VERTEX
  8
12STG26-MAIN
  5
8E1
 10
0.0
 20
0.0
 30
0.0
 70
   128
 71
  -200
 72
   201
 73
   199
  0
VERTEX
  8
12STG26-MAIN
  5
8E2
 10
0.0
 20
0.0
 30
0.0
 70
   128
 71
   203
 72
  -201
 73
   200
  0
VERTEX
  8
12STG26-MAIN
  5
8E3
 10
0.0
 20
0.0
 30
0.0
 70
   128
 71
  -203
 72
   202
 73
   201
  0
VERTEX
  8
12STG26-MAIN
  5
8E4
 10
0.0
 20
0.0
 30
0.0
 70
   128
 71
   204
 72
  -202
 73
   203
  0
VERTEX
  8
12STG26-MAIN
  5
8E5
 10
0.0
 20
0.0
 30
0.0
 70
   128
 71
  -204
 72
   207
 73
   202
  0
VERTEX
  8
12STG26-MAIN
  5
8E6
 10
0.0
 20
0.0
 30
0.0
 70
   128
 71
   205
 72
  -207
 73
   204
  0
VERTEX
  8
12STG26-MAIN
  5
8E7
 10
0.0
 20
0.0
 30
0.0
 70
   128
 71
  -207
 72
   208
 73
   206
  0
VERTEX
  8
12STG26-MAIN
  5
8E8
 10
0.0
 20
0.0
 30
0.0
 70
   128
 71
   205
 72
  -208
 73
   207
  0
VERTEX
  8
12STG26-MAIN
  5
8E9
 10
0.0
 20
0.0
 30
0.0
 70
   128
 71
  -206
 72
   209
 73
   210
  0
VERTEX
  8
12STG26-MAIN
  5
8EA
 10
0.0
 20
0.0
 30
0.0
 70
   128
 71
   208
 72
  -209
 73
   206
  0
VERTEX
  8
12STG26-MAIN
  5
8EB
 10
0.0
 20
0.0
 30
0.0
 70
   128
 71
  -210
 72
   211
 73
   213
  0
VERTEX
  8
12STG26-MAIN
  5
8EC
 10
0.0
 20
0.0
 30
0.0
 70
   128
 71
   209
 72
  -211
 73
   210
  0
VERTEX
  8
12STG26-MAIN
  5
8ED
 10
0.0
 20
0.0
 30
0.0
 70
   128
 71
  -213
 72
   212
 73
   215
  0
VERTEX
  8
12STG26-MAIN
  5
8EE
 10
0.0
 20
0.0
 30
0.0
 70
   128
 71
   211
 72
  -212
 73
   213
  0
VERTEX
  8
12STG26-MAIN
  5
8EF
 10
0.0
 20
0.0
 30
0.0
 70
   128
 71
  -215
 72
   216
 73
   214
  0
VERTEX
  8
12STG26-MAIN
  5
8F0
 10
0.0
 20
0.0
 30
0.0
 70
   128
 71
   212
 72
  -216
 73
   215
  0
SEQEND
  8
12STG26-MAIN
  5
8F1
  0
POLYLINE
  8
12STG26-MAIN
  5
8F2
 66
     1
 10
0.0
 20
0.0
 30
0.0
 70
    64
 71
   216
 72
   260
1001
AVE_ENTITY_MATERIAL
1002
{
1000

1002
{
1071
        0
1070
     0
1070
     0
1002
{
1070
     0
1070
     0
1070
     0
1040
0.0
1002
}
1070
     0
1070
     0
1002
{
1002
}
1002
}
1002
{
1002
}
1002
{
1002
}
1011
0.0
1021
0.0
1031
0.0
1011
1.0
1021
0.0
1031
0.0
1011
0.0
1021
1.0
1031
0.0
1011
0.0
1021
0.0
1031
1.0
1002
}
1001
AVE_FINISH
1002
{
1070
     0
1005
6EF
1002
}
  0
VERTEX
  8
12STG26-MAIN
  5
8F3
 10
17.052
 20
-1.154
 30
1.285
 70
   192
  0
VERTEX
  8
12STG26-MAIN
  5
8F4
 10
17.342
 20
-1.426
 30
0.143
 70
   192
  0
VERTEX
  8
12STG26-MAIN
  5
8F5
 10
18.037
 20
-1.268
 30
0.007
 70
   192
  0
VERTEX
  8
12STG26-MAIN
  5
8F6
 10
17.698
 20
-1.073
 30
1.162
 70
   192
  0
VERTEX
  8
12STG26-MAIN
  5
8F7
 10
16.906
 20
-1.018
 30
2.479
 70
   192
  0
VERTEX
  8
12STG26-MAIN
  5
8F8
 10
17.608
 20
-0.958
 30
2.37
 70
   192
  0
VERTEX
  8
12STG26-MAIN
  5
8F9
 10
16.818
 20
-0.936
 30
3.685
 70
   192
  0
VERTEX
  8
12STG26-MAIN
  5
8FA
 10
17.617
 20
-0.853
 30
3.583
 70
   192
  0
VERTEX
  8
12STG26-MAIN
  5
8FB
 10
17.668
 20
-0.73
 30
4.792
 70
   192
  0
VERTEX
  8
12STG26-MAIN
  5
8FC
 10
17.771
 20
-0.604
 30
5.996
 70
   192
  0
VERTEX
  8
12STG26-MAIN
  5
8FD
 10
16.765
 20
-0.887
 30
4.895
 70
   192
  0
VERTEX
  8
12STG26-MAIN
  5
8FE
 10
16.751
 20
-0.871
 30
7.318
 70
   192
  0
VERTEX
  8
12STG26-MAIN
  5
8FF
 10
16.748
 20
-0.87
 30
6.106
 70
   192
  0
VERTEX
  8
12STG26-MAIN
  5
900
 10
17.903
 20
-0.476
 30
7.198
 70
   192
  0
VERTEX
  8
12STG26-MAIN
  5
901
 10
18.041
 20
-0.35
 30
8.398
 70
   192
  0
VERTEX
  8
12STG26-MAIN
  5
902
 10
16.752
 20
-0.871
 30
9.742
 70
   192
  0
VERTEX
  8
12STG26-MAIN
  5
903
 10
16.758
 20
-0.877
 30
8.53
 70
   192
  0
VERTEX
  8
12STG26-MAIN
  5
904
 10
18.161
 20
-0.224
 30
9.601
 70
   192
  0
VERTEX
  8
12STG26-MAIN
  5
905
 10
18.226
 20
-0.104
 30
10.81
 70
   192
  0
VERTEX
  8
12STG26-MAIN
  5
906
 10
18.185
 20
0.004
 30
12.022
 70
   192
  0
VERTEX
  8
12STG26-MAIN
  5
907
 10
16.709
 20
-0.829
 30
10.951
 70
   192
  0
VERTEX
  8
12STG26-MAIN
  5
908
 10
17.92
 20
0.082
 30
13.207
 70
   192
  0
VERTEX
  8
12STG26-MAIN
  5
909
 10
16.591
 20
-0.72
 30
12.151
 70
   192
  0
VERTEX
  8
12STG26-MAIN
  5
90A
 10
15.74
 20
0.072
 30
14.201
 70
   192
  0
VERTEX
  8
12STG26-MAIN
  5
90B
 10
17.243
 20
0.094
 30
14.221
 70
   192
  0
VERTEX
  8
12STG26-MAIN
  5
90C
 10
16.316
 20
-0.463
 30
13.297
 70
   192
  0
VERTEX
  8
12STG26-MAIN
  5
90D
 10
15.344
 20
0.442
 30
15.248
 70
   192
  0
VERTEX
  8
12STG26-MAIN
  5
90E
 10
16.829
 20
0.148
 30
15.343
 70
   192
  0
VERTEX
  8
12STG26-MAIN
  5
90F
 10
2.718
 20
1.176
 30
15.52
 70
   192
  0
VERTEX
  8
12STG26-MAIN
  5
910
 10
1.591
 20
1.176
 30
15.398
 70
   192
  0
VERTEX
  8
12STG26-MAIN
  5
911
 10
2.084
 20
0.978
 30
7.793
 70
   192
  0
VERTEX
  8
12STG26-MAIN
  5
912
 10
0.93
 20
0.786
 30
0.246
 70
   192
  0
VERTEX
  8
12STG26-MAIN
  5
913
 10
0.956
 20
0.978
 30
7.672
 70
   192
  0
VERTEX
  8
12STG26-MAIN
  5
914
 10
-0.197
 20
0.786
 30
0.125
 70
   192
  0
VERTEX
  8
12STG26-MAIN
  5
915
 10
1.788
 20
0.391
 30
15.42
 70
   192
  0
VERTEX
  8
12STG26-MAIN
  5
916
 10
1.154
 20
0.193
 30
7.692
 70
   192
  0
VERTEX
  8
12STG26-MAIN
  5
917
 10
2.915
 20
0.391
 30
15.541
 70
   192
  0
VERTEX
  8
12STG26-MAIN
  5
918
 10
2.281
 20
0.193
 30
7.813
 70
   192
  0
VERTEX
  8
12STG26-MAIN
  5
919
 10
1.127
 20
0.0
 30
0.268
 70
   192
  0
VERTEX
  8
12STG26-MAIN
  5
91A
 10
0.0
 20
0.0
 30
0.146
 70
   192
  0
VERTEX
  8
12STG26-MAIN
  5
91B
 10
15.755
 20
-1.009
 30
15.382
 70
   192
  0
VERTEX
  8
12STG26-MAIN
  5
91C
 10
16.148
 20
-1.084
 30
15.398
 70
   192
  0
VERTEX
  8
12STG26-MAIN
  5
91D
 10
15.829
 20
-1.28
 30
14.449
 70
   192
  0
VERTEX
  8
12STG26-MAIN
  5
91E
 10
16.271
 20
-1.337
 30
14.464
 70
   192
  0
VERTEX
  8
12STG26-MAIN
  5
91F
 10
15.872
 20
-1.883
 30
13.681
 70
   192
  0
VERTEX
  8
12STG26-MAIN
  5
920
 10
16.46
 20
-1.903
 30
13.692
 70
   192
  0
VERTEX
  8
12STG26-MAIN
  5
921
 10
15.938
 20
-2.251
 30
12.776
 70
   192
  0
VERTEX
  8
12STG26-MAIN
  5
922
 10
16.602
 20
-2.244
 30
12.784
 70
   192
  0
VERTEX
  8
12STG26-MAIN
  5
923
 10
16.022
 20
-2.374
 30
11.798
 70
   192
  0
VERTEX
  8
12STG26-MAIN
  5
924
 10
16.112
 20
-2.384
 30
10.811
 70
   192
  0
VERTEX
  8
12STG26-MAIN
  5
925
 10
16.754
 20
-2.36
 30
10.812
 70
   192
  0
VERTEX
  8
12STG26-MAIN
  5
926
 10
16.206
 20
-2.326
 30
9.823
 70
   192
  0
VERTEX
  8
12STG26-MAIN
  5
927
 10
16.801
 20
-2.3
 30
9.822
 70
   192
  0
VERTEX
  8
12STG26-MAIN
  5
928
 10
16.298
 20
-2.228
 30
8.838
 70
   192
  0
VERTEX
  8
12STG26-MAIN
  5
929
 10
16.393
 20
-2.114
 30
7.855
 70
   192
  0
VERTEX
  8
12STG26-MAIN
  5
92A
 10
16.87
 20
-2.09
 30
7.849
 70
   192
  0
VERTEX
  8
12STG26-MAIN
  5
92B
 10
16.487
 20
-1.994
 30
6.872
 70
   192
  0
VERTEX
  8
12STG26-MAIN
  5
92C
 10
16.582
 20
-1.884
 30
5.888
 70
   192
  0
VERTEX
  8
12STG26-MAIN
  5
92D
 10
16.676
 20
-1.795
 30
4.903
 70
   192
  0
VERTEX
  8
12STG26-MAIN
  5
92E
 10
16.975
 20
-1.778
 30
4.89
 70
   192
  0
VERTEX
  8
12STG26-MAIN
  5
92F
 10
16.772
 20
-1.74
 30
3.917
 70
   192
  0
VERTEX
  8
12STG26-MAIN
  5
930
 10
16.864
 20
-1.721
 30
2.928
 70
   192
  0
VERTEX
  8
12STG26-MAIN
  5
931
 10
16.942
 20
-1.718
 30
1.939
 70
   192
  0
VERTEX
  8
12STG26-MAIN
  5
932
 10
17.06
 20
-1.843
 30
0.965
 70
   192
  0
VERTEX
  8
12STG26-MAIN
  5
933
 10
17.254
 20
-1.814
 30
0.942
 70
   192
  0
VERTEX
  8
12STG26-MAIN
  5
934
 10
17.245
 20
-2.122
 30
0.036
 70
   192
  0
VERTEX
  8
12STG26-MAIN
  5
935
 10
16.716
 20
-1.355
 30
14.474
 70
   192
  0
VERTEX
  8
12STG26-MAIN
  5
936
 10
17.047
 20
-1.864
 30
13.699
 70
   192
  0
VERTEX
  8
12STG26-MAIN
  5
937
 10
17.26
 20
-2.168
 30
12.787
 70
   192
  0
VERTEX
  8
12STG26-MAIN
  5
938
 10
16.691
 20
-2.354
 30
11.803
 70
   192
  0
VERTEX
  8
12STG26-MAIN
  5
939
 10
16.838
 20
-2.204
 30
8.834
 70
   192
  0
VERTEX
  8
12STG26-MAIN
  5
93A
 10
17.34
 20
-2.018
 30
7.842
 70
   192
  0
VERTEX
  8
12STG26-MAIN
  5
93B
 10
16.901
 20
-1.975
 30
6.864
 70
   192
  0
VERTEX
  8
12STG26-MAIN
  5
93C
 10
17.31
 20
-1.91
 30
6.854
 70
   192
  0
VERTEX
  8
12STG26-MAIN
  5
93D
 10
17.284
 20
-1.811
 30
5.867
 70
   192
  0
VERTEX
  8
12STG26-MAIN
  5
93E
 10
16.936
 20
-1.866
 30
5.878
 70
   192
  0
VERTEX
  8
12STG26-MAIN
  5
93F
 10
17.27
 20
-1.73
 30
4.876
 70
   192
  0
VERTEX
  8
12STG26-MAIN
  5
940
 10
17.026
 20
-1.723
 30
3.899
 70
   192
  0
VERTEX
  8
12STG26-MAIN
  5
941
 10
17.276
 20
-1.679
 30
3.883
 70
   192
  0
VERTEX
  8
12STG26-MAIN
  5
942
 10
17.083
 20
-1.7
 30
2.908
 70
   192
  0
VERTEX
  8
12STG26-MAIN
  5
943
 10
17.131
 20
-1.692
 30
1.916
 70
   192
  0
VERTEX
  8
12STG26-MAIN
  5
944
 10
17.297
 20
-1.657
 30
2.89
 70
   192
  0
VERTEX
  8
12STG26-MAIN
  5
945
 10
17.702
 20
-2.052
 30
0.011
 70
   192
  0
VERTEX
  8
12STG26-MAIN
  5
946
 10
17.476
 20
-2.099
 30
0.023
 70
   192
  0
VERTEX
  8
12STG26-MAIN
  5
947
 10
16.548
 20
-1.126
 30
15.413
 70
   192
  0
VERTEX
  8
12STG26-MAIN
  5
948
 10
16.924
 20
-1.016
 30
15.416
 70
   192
  0
VERTEX
  8
12STG26-MAIN
  5
949
 10
17.126
 20
-1.206
 30
14.476
 70
   192
  0
VERTEX
  8
12STG26-MAIN
  5
94A
 10
17.572
 20
-1.621
 30
13.697
 70
   192
  0
VERTEX
  8
12STG26-MAIN
  5
94B
 10
17.844
 20
-1.874
 30
12.781
 70
   192
  0
VERTEX
  8
12STG26-MAIN
  5
94C
 10
17.352
 20
-2.266
 30
11.804
 70
   192
  0
VERTEX
  8
12STG26-MAIN
  5
94D
 10
17.938
 20
-1.961
 30
11.796
 70
   192
  0
VERTEX
  8
12STG26-MAIN
  5
94E
 10
17.388
 20
-2.268
 30
10.811
 70
   192
  0
VERTEX
  8
12STG26-MAIN
  5
94F
 10
17.947
 20
-1.972
 30
10.802
 70
   192
  0
VERTEX
  8
12STG26-MAIN
  5
950
 10
17.389
 20
-2.212
 30
9.818
 70
   192
  0
VERTEX
  8
12STG26-MAIN
  5
951
 10
17.908
 20
-1.934
 30
9.809
 70
   192
  0
VERTEX
  8
12STG26-MAIN
  5
952
 10
17.369
 20
-2.123
 30
8.83
 70
   192
  0
VERTEX
  8
12STG26-MAIN
  5
953
 10
17.837
 20
-1.871
 30
8.82
 70
   192
  0
VERTEX
  8
12STG26-MAIN
  5
954
 10
17.755
 20
-1.796
 30
7.831
 70
   192
  0
VERTEX
  8
12STG26-MAIN
  5
955
 10
17.67
 20
-1.717
 30
6.845
 70
   192
  0
VERTEX
  8
12STG26-MAIN
  5
956
 10
17.591
 20
-1.645
 30
5.856
 70
   192
  0
VERTEX
  8
12STG26-MAIN
  5
957
 10
17.53
 20
-1.588
 30
4.865
 70
   192
  0
VERTEX
  8
12STG26-MAIN
  5
958
 10
17.495
 20
-1.556
 30
3.871
 70
   192
  0
VERTEX
  8
12STG26-MAIN
  5
959
 10
17.485
 20
-1.548
 30
2.878
 70
   192
  0
VERTEX
  8
12STG26-MAIN
  5
95A
 10
17.316
 20
-1.644
 30
1.896
 70
   192
  0
VERTEX
  8
12STG26-MAIN
  5
95B
 10
17.478
 20
-1.543
 30
1.883
 70
   192
  0
VERTEX
  8
12STG26-MAIN
  5
95C
 10
17.441
 20
-1.765
 30
0.922
 70
   192
  0
VERTEX
  8
12STG26-MAIN
  5
95D
 10
17.606
 20
-1.662
 30
0.908
 70
   192
  0
VERTEX
  8
12STG26-MAIN
  5
95E
 10
17.902
 20
-1.936
 30
0.001
 70
   192
  0
VERTEX
  8
12STG26-MAIN
  5
95F
 10
17.441
 20
18.63
 30
0.922
 70
   192
  0
VERTEX
  8
12STG26-MAIN
  5
960
 10
17.902
 20
18.8
 30
0.001
 70
   192
  0
VERTEX
  8
12STG26-MAIN
  5
961
 10
17.702
 20
18.917
 30
0.011
 70
   192
  0
VERTEX
  8
12STG26-MAIN
  5
962
 10
17.606
 20
18.527
 30
0.908
 70
   192
  0
VERTEX
  8
12STG26-MAIN
  5
963
 10
17.478
 20
18.408
 30
1.883
 70
   192
  0
VERTEX
  8
12STG26-MAIN
  5
964
 10
17.495
 20
18.421
 30
3.871
 70
   192
  0
VERTEX
  8
12STG26-MAIN
  5
965
 10
17.485
 20
18.413
 30
2.878
 70
   192
  0
VERTEX
  8
12STG26-MAIN
  5
966
 10
17.53
 20
18.452
 30
4.865
 70
   192
  0
VERTEX
  8
12STG26-MAIN
  5
967
 10
17.276
 20
18.544
 30
3.883
 70
   192
  0
VERTEX
  8
12STG26-MAIN
  5
968
 10
17.284
 20
18.676
 30
5.867
 70
   192
  0
VERTEX
  8
12STG26-MAIN
  5
969
 10
17.591
 20
18.51
 30
5.856
 70
   192
  0
VERTEX
  8
12STG26-MAIN
  5
96A
 10
17.27
 20
18.595
 30
4.876
 70
   192
  0
VERTEX
  8
12STG26-MAIN
  5
96B
 10
17.67
 20
18.582
 30
6.845
 70
   192
  0
VERTEX
  8
12STG26-MAIN
  5
96C
 10
17.755
 20
18.661
 30
7.831
 70
   192
  0
VERTEX
  8
12STG26-MAIN
  5
96D
 10
17.369
 20
18.988
 30
8.83
 70
   192
  0
VERTEX
  8
12STG26-MAIN
  5
96E
 10
17.34
 20
18.883
 30
7.842
 70
   192
  0
VERTEX
  8
12STG26-MAIN
  5
96F
 10
17.389
 20
19.076
 30
9.818
 70
   192
  0
VERTEX
  8
12STG26-MAIN
  5
970
 10
17.908
 20
18.799
 30
9.809
 70
   192
  0
VERTEX
  8
12STG26-MAIN
  5
971
 10
17.837
 20
18.736
 30
8.82
 70
   192
  0
VERTEX
  8
12STG26-MAIN
  5
972
 10
17.388
 20
19.133
 30
10.811
 70
   192
  0
VERTEX
  8
12STG26-MAIN
  5
973
 10
17.947
 20
18.836
 30
10.802
 70
   192
  0
VERTEX
  8
12STG26-MAIN
  5
974
 10
17.352
 20
19.13
 30
11.804
 70
   192
  0
VERTEX
  8
12STG26-MAIN
  5
975
 10
17.938
 20
18.826
 30
11.796
 70
   192
  0
VERTEX
  8
12STG26-MAIN
  5
976
 10
17.047
 20
18.728
 30
13.699
 70
   192
  0
VERTEX
  8
12STG26-MAIN
  5
977
 10
17.844
 20
18.739
 30
12.781
 70
   192
  0
VERTEX
  8
12STG26-MAIN
  5
978
 10
17.26
 20
19.033
 30
12.787
 70
   192
  0
VERTEX
  8
12STG26-MAIN
  5
979
 10
17.126
 20
18.071
 30
14.476
 70
   192
  0
VERTEX
  8
12STG26-MAIN
  5
97A
 10
17.572
 20
18.486
 30
13.697
 70
   192
  0
VERTEX
  8
12STG26-MAIN
  5
97B
 10
16.548
 20
17.99
 30
15.413
 70
   192
  0
VERTEX
  8
12STG26-MAIN
  5
97C
 10
16.924
 20
17.881
 30
15.416
 70
   192
  0
VERTEX
  8
12STG26-MAIN
  5
97D
 10
17.297
 20
18.522
 30
2.89
 70
   192
  0
VERTEX
  8
12STG26-MAIN
  5
97E
 10
17.316
 20
18.509
 30
1.896
 70
   192
  0
VERTEX
  8
12STG26-MAIN
  5
97F
 10
16.975
 20
18.643
 30
4.89
 70
   192
  0
VERTEX
  8
12STG26-MAIN
  5
980
 10
16.936
 20
18.731
 30
5.878
 70
   192
  0
VERTEX
  8
12STG26-MAIN
  5
981
 10
16.901
 20
18.84
 30
6.864
 70
   192
  0
VERTEX
  8
12STG26-MAIN
  5
982
 10
17.31
 20
18.775
 30
6.854
 70
   192
  0
VERTEX
  8
12STG26-MAIN
  5
983
 10
16.801
 20
19.165
 30
9.822
 70
   192
  0
VERTEX
  8
12STG26-MAIN
  5
984
 10
16.691
 20
19.219
 30
11.803
 70
   192
  0
VERTEX
  8
12STG26-MAIN
  5
985
 10
16.754
 20
19.225
 30
10.812
 70
   192
  0
VERTEX
  8
12STG26-MAIN
  5
986
 10
16.602
 20
19.109
 30
12.784
 70
   192
  0
VERTEX
  8
12STG26-MAIN
  5
987
 10
16.716
 20
18.22
 30
14.474
 70
   192
  0
VERTEX
  8
12STG26-MAIN
  5
988
 10
16.271
 20
18.202
 30
14.464
 70
   192
  0
VERTEX
  8
12STG26-MAIN
  5
989
 10
17.254
 20
18.679
 30
0.942
 70
   192
  0
VERTEX
  8
12STG26-MAIN
  5
98A
 10
17.476
 20
18.964
 30
0.023
 70
   192
  0
VERTEX
  8
12STG26-MAIN
  5
98B
 10
17.245
 20
18.986
 30
0.036
 70
   192
  0
VERTEX
  8
12STG26-MAIN
  5
98C
 10
16.942
 20
18.583
 30
1.939
 70
   192
  0
VERTEX
  8
12STG26-MAIN
  5
98D
 10
17.131
 20
18.557
 30
1.916
 70
   192
  0
VERTEX
  8
12STG26-MAIN
  5
98E
 10
17.06
 20
18.708
 30
0.965
 70
   192
  0
VERTEX
  8
12STG26-MAIN
  5
98F
 10
17.083
 20
18.565
 30
2.908
 70
   192
  0
VERTEX
  8
12STG26-MAIN
  5
990
 10
16.864
 20
18.586
 30
2.928
 70
   192
  0
VERTEX
  8
12STG26-MAIN
  5
991
 10
17.026
 20
18.588
 30
3.899
 70
   192
  0
VERTEX
  8
12STG26-MAIN
  5
992
 10
16.772
 20
18.605
 30
3.917
 70
   192
  0
VERTEX
  8
12STG26-MAIN
  5
993
 10
16.582
 20
18.749
 30
5.888
 70
   192
  0
VERTEX
  8
12STG26-MAIN
  5
994
 10
16.676
 20
18.66
 30
4.903
 70
   192
  0
VERTEX
  8
12STG26-MAIN
  5
995
 10
16.87
 20
18.955
 30
7.849
 70
   192
  0
VERTEX
  8
12STG26-MAIN
  5
996
 10
16.487
 20
18.859
 30
6.872
 70
   192
  0
VERTEX
  8
12STG26-MAIN
  5
997
 10
16.298
 20
19.093
 30
8.838
 70
   192
  0
VERTEX
  8
12STG26-MAIN
  5
998
 10
16.838
 20
19.069
 30
8.834
 70
   192
  0
VERTEX
  8
12STG26-MAIN
  5
999
 10
16.393
 20
18.979
 30
7.855
 70
   192
  0
VERTEX
  8
12STG26-MAIN
  5
99A
 10
16.206
 20
19.19
 30
9.823
 70
   192
  0
VERTEX
  8
12STG26-MAIN
  5
99B
 10
16.022
 20
19.238
 30
11.798
 70
   192
  0
VERTEX
  8
12STG26-MAIN
  5
99C
 10
16.112
 20
19.249
 30
10.811
 70
   192
  0
VERTEX
  8
12STG26-MAIN
  5
99D
 10
15.938
 20
19.116
 30
12.776
 70
   192
  0
VERTEX
  8
12STG26-MAIN
  5
99E
 10
16.46
 20
18.768
 30
13.692
 70
   192
  0
VERTEX
  8
12STG26-MAIN
  5
99F
 10
15.872
 20
18.748
 30
13.681
 70
   192
  0
VERTEX
  8
12STG26-MAIN
  5
9A0
 10
15.755
 20
17.874
 30
15.382
 70
   192
  0
VERTEX
  8
12STG26-MAIN
  5
9A1
 10
16.148
 20
17.948
 30
15.398
 70
   192
  0
VERTEX
  8
12STG26-MAIN
  5
9A2
 10
15.829
 20
18.145
 30
14.449
 70
   192
  0
VERTEX
  8
12STG26-MAIN
  5
9A3
 10
1.154
 20
16.672
 30
7.692
 70
   192
  0
VERTEX
  8
12STG26-MAIN
  5
9A4
 10
0.0
 20
16.865
 30
0.146
 70
   192
  0
VERTEX
  8
12STG26-MAIN
  5
9A5
 10
1.127
 20
16.865
 30
0.268
 70
   192
  0
VERTEX
  8
12STG26-MAIN
  5
9A6
 10
1.788
 20
16.474
 30
15.42
 70
   192
  0
VERTEX
  8
12STG26-MAIN
  5
9A7
 10
2.915
 20
16.474
 30
15.541
 70
   192
  0
VERTEX
  8
12STG26-MAIN
  5
9A8
 10
2.281
 20
16.672
 30
7.813
 70
   192
  0
VERTEX
  8
12STG26-MAIN
  5
9A9
 10
0.93
 20
16.079
 30
0.246
 70
   192
  0
VERTEX
  8
12STG26-MAIN
  5
9AA
 10
-0.197
 20
16.079
 30
0.125
 70
   192
  0
VERTEX
  8
12STG26-MAIN
  5
9AB
 10
2.718
 20
15.689
 30
15.52
 70
   192
  0
VERTEX
  8
12STG26-MAIN
  5
9AC
 10
2.084
 20
15.887
 30
7.793
 70
   192
  0
VERTEX
  8
12STG26-MAIN
  5
9AD
 10
0.956
 20
15.887
 30
7.672
 70
   192
  0
VERTEX
  8
12STG26-MAIN
  5
9AE
 10
1.591
 20
15.689
 30
15.398
 70
   192
  0
VERTEX
  8
12STG26-MAIN
  5
9AF
 10
17.342
 20
18.29
 30
0.143
 70
   192
  0
VERTEX
  8
12STG26-MAIN
  5
9B0
 10
18.037
 20
18.133
 30
0.007
 70
   192
  0
VERTEX
  8
12STG26-MAIN
  5
9B1
 10
17.608
 20
17.822
 30
2.37
 70
   192
  0
VERTEX
  8
12STG26-MAIN
  5
9B2
 10
17.052
 20
18.019
 30
1.285
 70
   192
  0
VERTEX
  8
12STG26-MAIN
  5
9B3
 10
17.698
 20
17.938
 30
1.162
 70
   192
  0
VERTEX
  8
12STG26-MAIN
  5
9B4
 10
16.818
 20
17.801
 30
3.685
 70
   192
  0
VERTEX
  8
12STG26-MAIN
  5
9B5
 10
16.906
 20
17.882
 30
2.479
 70
   192
  0
VERTEX
  8
12STG26-MAIN
  5
9B6
 10
17.617
 20
17.718
 30
3.583
 70
   192
  0
VERTEX
  8
12STG26-MAIN
  5
9B7
 10
16.748
 20
17.735
 30
6.106
 70
   192
  0
VERTEX
  8
12STG26-MAIN
  5
9B8
 10
16.765
 20
17.752
 30
4.895
 70
   192
  0
VERTEX
  8
12STG26-MAIN
  5
9B9
 10
17.771
 20
17.468
 30
5.996
 70
   192
  0
VERTEX
  8
12STG26-MAIN
  5
9BA
 10
17.668
 20
17.594
 30
4.792
 70
   192
  0
VERTEX
  8
12STG26-MAIN
  5
9BB
 10
17.903
 20
17.341
 30
7.198
 70
   192
  0
VERTEX
  8
12STG26-MAIN
  5
9BC
 10
16.751
 20
17.736
 30
7.318
 70
   192
  0
VERTEX
  8
12STG26-MAIN
  5
9BD
 10
18.041
 20
17.215
 30
8.398
 70
   192
  0
VERTEX
  8
12STG26-MAIN
  5
9BE
 10
16.752
 20
17.736
 30
9.742
 70
   192
  0
VERTEX
  8
12STG26-MAIN
  5
9BF
 10
18.161
 20
17.089
 30
9.601
 70
   192
  0
VERTEX
  8
12STG26-MAIN
  5
9C0
 10
16.758
 20
17.742
 30
8.53
 70
   192
  0
VERTEX
  8
12STG26-MAIN
  5
9C1
 10
16.709
 20
17.694
 30
10.951
 70
   192
  0
VERTEX
  8
12STG26-MAIN
  5
9C2
 10
18.226
 20
16.969
 30
10.81
 70
   192
  0
VERTEX
  8
12STG26-MAIN
  5
9C3
 10
16.591
 20
17.585
 30
12.151
 70
   192
  0
VERTEX
  8
12STG26-MAIN
  5
9C4
 10
18.185
 20
16.861
 30
12.022
 70
   192
  0
VERTEX
  8
12STG26-MAIN
  5
9C5
 10
16.316
 20
17.328
 30
13.297
 70
   192
  0
VERTEX
  8
12STG26-MAIN
  5
9C6
 10
17.92
 20
16.783
 30
13.207
 70
   192
  0
VERTEX
  8
12STG26-MAIN
  5
9C7
 10
15.344
 20
16.423
 30
15.248
 70
   192
  0
VERTEX
  8
12STG26-MAIN
  5
9C8
 10
15.74
 20
16.793
 30
14.201
 70
   192
  0
VERTEX
  8
12STG26-MAIN
  5
9C9
 10
17.243
 20
16.771
 30
14.221
 70
   192
  0
VERTEX
  8
12STG26-MAIN
  5
9CA
 10
16.829
 20
16.717
 30
15.343
 70
   192
  0
VERTEX
  8
12STG26-MAIN
  5
9CB
 10
0.0
 20
0.0
 30
0.0
 70
   128
 71
    -4
 72
     2
 73
     1
  0
VERTEX
  8
12STG26-MAIN
  5
9CC
 10
0.0
 20
0.0
 30
0.0
 70
   128
 71
     4
 72
     3
 73
    -2
  0
VERTEX
  8
12STG26-MAIN
  5
9CD
 10
0.0
 20
0.0
 30
0.0
 70
   128
 71
    -6
 72
     1
 73
     5
  0
VERTEX
  8
12STG26-MAIN
  5
9CE
 10
0.0
 20
0.0
 30
0.0
 70
   128
 71
     6
 72
     4
 73
    -1
  0
VERTEX
  8
12STG26-MAIN
  5
9CF
 10
0.0
 20
0.0
 30
0.0
 70
   128
 71
    -8
 72
     5
 73
     7
  0
VERTEX
  8
12STG26-MAIN
  5
9D0
 10
0.0
 20
0.0
 30
0.0
 70
   128
 71
     8
 72
     6
 73
    -5
  0
VERTEX
  8
12STG26-MAIN
  5
9D1
 10
0.0
 20
0.0
 30
0.0
 70
   128
 71
    -9
 72
     7
 73
    11
  0
VERTEX
  8
12STG26-MAIN
  5
9D2
 10
0.0
 20
0.0
 30
0.0
 70
   128
 71
     9
 72
     8
 73
    -7
  0
VERTEX
  8
12STG26-MAIN
  5
9D3
 10
0.0
 20
0.0
 30
0.0
 70
   128
 71
   -10
 72
    11
 73
    13
  0
VERTEX
  8
12STG26-MAIN
  5
9D4
 10
0.0
 20
0.0
 30
0.0
 70
   128
 71
    10
 72
     9
 73
   -11
  0
VERTEX
  8
12STG26-MAIN
  5
9D5
 10
0.0
 20
0.0
 30
0.0
 70
   128
 71
   -14
 72
    13
 73
    12
  0
VERTEX
  8
12STG26-MAIN
  5
9D6
 10
0.0
 20
0.0
 30
0.0
 70
   128
 71
    14
 72
    10
 73
   -13
  0
VERTEX
  8
12STG26-MAIN
  5
9D7
 10
0.0
 20
0.0
 30
0.0
 70
   128
 71
   -15
 72
    12
 73
    17
  0
VERTEX
  8
12STG26-MAIN
  5
9D8
 10
0.0
 20
0.0
 30
0.0
 70
   128
 71
    15
 72
    14
 73
   -12
  0
VERTEX
  8
12STG26-MAIN
  5
9D9
 10
0.0
 20
0.0
 30
0.0
 70
   128
 71
   -18
 72
    17
 73
    16
  0
VERTEX
  8
12STG26-MAIN
  5
9DA
 10
0.0
 20
0.0
 30
0.0
 70
   128
 71
    18
 72
    15
 73
   -17
  0
VERTEX
  8
12STG26-MAIN
  5
9DB
 10
0.0
 20
0.0
 30
0.0
 70
   128
 71
   -19
 72
    16
 73
    21
  0
VERTEX
  8
12STG26-MAIN
  5
9DC
 10
0.0
 20
0.0
 30
0.0
 70
   128
 71
    19
 72
    18
 73
   -16
  0
VERTEX
  8
12STG26-MAIN
  5
9DD
 10
0.0
 20
0.0
 30
0.0
 70
   128
 71
   -20
 72
    21
 73
    23
  0
VERTEX
  8
12STG26-MAIN
  5
9DE
 10
0.0
 20
0.0
 30
0.0
 70
   128
 71
    20
 72
    19
 73
   -21
  0
VERTEX
  8
12STG26-MAIN
  5
9DF
 10
0.0
 20
0.0
 30
0.0
 70
   128
 71
   -22
 72
    23
 73
    26
  0
VERTEX
  8
12STG26-MAIN
  5
9E0
 10
0.0
 20
0.0
 30
0.0
 70
   128
 71
    22
 72
    20
 73
   -23
  0
VERTEX
  8
12STG26-MAIN
  5
9E1
 10
0.0
 20
0.0
 30
0.0
 70
   128
 71
   -25
 72
    26
 73
    24
  0
VERTEX
  8
12STG26-MAIN
  5
9E2
 10
0.0
 20
0.0
 30
0.0
 70
   128
 71
    25
 72
    22
 73
   -26
  0
VERTEX
  8
12STG26-MAIN
  5
9E3
 10
0.0
 20
0.0
 30
0.0
 70
   128
 71
   -28
 72
    24
 73
    27
  0
VERTEX
  8
12STG26-MAIN
  5
9E4
 10
0.0
 20
0.0
 30
0.0
 70
   128
 71
    28
 72
    25
 73
   -24
  0
VERTEX
  8
12STG26-MAIN
  5
9E5
 10
0.0
 20
0.0
 30
0.0
 70
   128
 71
   -31
 72
    30
 73
    29
  0
VERTEX
  8
12STG26-MAIN
  5
9E6
 10
0.0
 20
0.0
 30
0.0
 70
   128
 71
    33
 72
   -30
 73
    31
  0
VERTEX
  8
12STG26-MAIN
  5
9E7
 10
0.0
 20
0.0
 30
0.0
 70
   128
 71
   -32
 72
    33
 73
    31
  0
VERTEX
  8
12STG26-MAIN
  5
9E8
 10
0.0
 20
0.0
 30
0.0
 70
   128
 71
    34
 72
   -33
 73
    32
  0
VERTEX
  8
12STG26-MAIN
  5
9E9
 10
0.0
 20
0.0
 30
0.0
 70
   128
 71
   -37
 72
    36
 73
    35
  0
VERTEX
  8
12STG26-MAIN
  5
9EA
 10
0.0
 20
0.0
 30
0.0
 70
   128
 71
    38
 72
   -36
 73
    37
  0
VERTEX
  8
12STG26-MAIN
  5
9EB
 10
0.0
 20
0.0
 30
0.0
 70
   128
 71
   -38
 72
    40
 73
    36
  0
VERTEX
  8
12STG26-MAIN
  5
9EC
 10
0.0
 20
0.0
 30
0.0
 70
   128
 71
    39
 72
   -40
 73
    38
  0
VERTEX
  8
12STG26-MAIN
  5
9ED
 10
0.0
 20
0.0
 30
0.0
 70
   128
 71
   -42
 72
    43
 73
    41
  0
VERTEX
  8
12STG26-MAIN
  5
9EE
 10
0.0
 20
0.0
 30
0.0
 70
   128
 71
    44
 72
   -43
 73
    42
  0
VERTEX
  8
12STG26-MAIN
  5
9EF
 10
0.0
 20
0.0
 30
0.0
 70
   128
 71
   -44
 72
    45
 73
    43
  0
VERTEX
  8
12STG26-MAIN
  5
9F0
 10
0.0
 20
0.0
 30
0.0
 70
   128
 71
    46
 72
   -45
 73
    44
  0
VERTEX
  8
12STG26-MAIN
  5
9F1
 10
0.0
 20
0.0
 30
0.0
 70
   128
 71
   -46
 72
    47
 73
    45
  0
VERTEX
  8
12STG26-MAIN
  5
9F2
 10
0.0
 20
0.0
 30
0.0
 70
   128
 71
    48
 72
   -47
 73
    46
  0
VERTEX
  8
12STG26-MAIN
  5
9F3
 10
0.0
 20
0.0
 30
0.0
 70
   128
 71
   -48
 72
    49
 73
    47
  0
VERTEX
  8
12STG26-MAIN
  5
9F4
 10
0.0
 20
0.0
 30
0.0
 70
   128
 71
    70
 72
   -49
 73
    48
  0
VERTEX
  8
12STG26-MAIN
  5
9F5
 10
0.0
 20
0.0
 30
0.0
 70
   128
 71
   -70
 72
    50
 73
    49
  0
VERTEX
  8
12STG26-MAIN
  5
9F6
 10
0.0
 20
0.0
 30
0.0
 70
   128
 71
    51
 72
   -50
 73
    70
  0
VERTEX
  8
12STG26-MAIN
  5
9F7
 10
0.0
 20
0.0
 30
0.0
 70
   128
 71
   -51
 72
    52
 73
    50
  0
VERTEX
  8
12STG26-MAIN
  5
9F8
 10
0.0
 20
0.0
 30
0.0
 70
   128
 71
    53
 72
   -52
 73
    51
  0
VERTEX
  8
12STG26-MAIN
  5
9F9
 10
0.0
 20
0.0
 30
0.0
 70
   128
 71
   -53
 72
    54
 73
    52
  0
VERTEX
  8
12STG26-MAIN
  5
9FA
 10
0.0
 20
0.0
 30
0.0
 70
   128
 71
    71
 72
   -54
 73
    53
  0
VERTEX
  8
12STG26-MAIN
  5
9FB
 10
0.0
 20
0.0
 30
0.0
 70
   128
 71
   -71
 72
    55
 73
    54
  0
VERTEX
  8
12STG26-MAIN
  5
9FC
 10
0.0
 20
0.0
 30
0.0
 70
   128
 71
    56
 72
   -55
 73
    71
  0
VERTEX
  8
12STG26-MAIN
  5
9FD
 10
0.0
 20
0.0
 30
0.0
 70
   128
 71
   -56
 72
    57
 73
    55
  0
VERTEX
  8
12STG26-MAIN
  5
9FE
 10
0.0
 20
0.0
 30
0.0
 70
   128
 71
    73
 72
   -57
 73
    56
  0
VERTEX
  8
12STG26-MAIN
  5
9FF
 10
0.0
 20
0.0
 30
0.0
 70
   128
 71
   -73
 72
    58
 73
    57
  0
VERTEX
  8
12STG26-MAIN
  5
A00
 10
0.0
 20
0.0
 30
0.0
 70
   128
 71
    76
 72
   -58
 73
    73
  0
VERTEX
  8
12STG26-MAIN
  5
A01
 10
0.0
 20
0.0
 30
0.0
 70
   128
 71
   -76
 72
    59
 73
    58
  0
VERTEX
  8
12STG26-MAIN
  5
A02
 10
0.0
 20
0.0
 30
0.0
 70
   128
 71
    60
 72
   -59
 73
    76
  0
VERTEX
  8
12STG26-MAIN
  5
A03
 10
0.0
 20
0.0
 30
0.0
 70
   128
 71
   -60
 72
    61
 73
    59
  0
VERTEX
  8
12STG26-MAIN
  5
A04
 10
0.0
 20
0.0
 30
0.0
 70
   128
 71
    78
 72
   -61
 73
    60
  0
VERTEX
  8
12STG26-MAIN
  5
A05
 10
0.0
 20
0.0
 30
0.0
 70
   128
 71
   -78
 72
    62
 73
    61
  0
VERTEX
  8
12STG26-MAIN
  5
A06
 10
0.0
 20
0.0
 30
0.0
 70
   128
 71
    80
 72
   -62
 73
    78
  0
VERTEX
  8
12STG26-MAIN
  5
A07
 10
0.0
 20
0.0
 30
0.0
 70
   128
 71
   -80
 72
    63
 73
    62
  0
VERTEX
  8
12STG26-MAIN
  5
A08
 10
0.0
 20
0.0
 30
0.0
 70
   128
 71
    81
 72
   -63
 73
    80
  0
VERTEX
  8
12STG26-MAIN
  5
A09
 10
0.0
 20
0.0
 30
0.0
 70
   128
 71
   -81
 72
    64
 73
    63
  0
VERTEX
  8
12STG26-MAIN
  5
A0A
 10
0.0
 20
0.0
 30
0.0
 70
   128
 71
    65
 72
   -64
 73
    81
  0
VERTEX
  8
12STG26-MAIN
  5
A0B
 10
0.0
 20
0.0
 30
0.0
 70
   128
 71
   -65
 72
    66
 73
    64
  0
VERTEX
  8
12STG26-MAIN
  5
A0C
 10
0.0
 20
0.0
 30
0.0
 70
   128
 71
    84
 72
   -66
 73
    65
  0
VERTEX
  8
12STG26-MAIN
  5
A0D
 10
0.0
 20
0.0
 30
0.0
 70
   128
 71
   -85
 72
    44
 73
    42
  0
VERTEX
  8
12STG26-MAIN
  5
A0E
 10
0.0
 20
0.0
 30
0.0
 70
   128
 71
    67
 72
   -44
 73
    85
  0
VERTEX
  8
12STG26-MAIN
  5
A0F
 10
0.0
 20
0.0
 30
0.0
 70
   128
 71
   -67
 72
    46
 73
    44
  0
VERTEX
  8
12STG26-MAIN
  5
A10
 10
0.0
 20
0.0
 30
0.0
 70
   128
 71
    68
 72
   -46
 73
    67
  0
VERTEX
  8
12STG26-MAIN
  5
A11
 10
0.0
 20
0.0
 30
0.0
 70
   128
 71
   -68
 72
    48
 73
    46
  0
VERTEX
  8
12STG26-MAIN
  5
A12
 10
0.0
 20
0.0
 30
0.0
 70
   128
 71
    69
 72
   -48
 73
    68
  0
VERTEX
  8
12STG26-MAIN
  5
A13
 10
0.0
 20
0.0
 30
0.0
 70
   128
 71
   -69
 72
    70
 73
    48
  0
VERTEX
  8
12STG26-MAIN
  5
A14
 10
0.0
 20
0.0
 30
0.0
 70
   128
 71
    90
 72
   -70
 73
    69
  0
VERTEX
  8
12STG26-MAIN
  5
A15
 10
0.0
 20
0.0
 30
0.0
 70
   128
 71
   -90
 72
    51
 73
    70
  0
VERTEX
  8
12STG26-MAIN
  5
A16
 10
0.0
 20
0.0
 30
0.0
 70
   128
 71
    92
 72
   -51
 73
    90
  0
VERTEX
  8
12STG26-MAIN
  5
A17
 10
0.0
 20
0.0
 30
0.0
 70
   128
 71
   -92
 72
    53
 73
    51
  0
VERTEX
  8
12STG26-MAIN
  5
A18
 10
0.0
 20
0.0
 30
0.0
 70
   128
 71
    94
 72
   -53
 73
    92
  0
VERTEX
  8
12STG26-MAIN
  5
A19
 10
0.0
 20
0.0
 30
0.0
 70
   128
 71
   -94
 72
    71
 73
    53
  0
VERTEX
  8
12STG26-MAIN
  5
A1A
 10
0.0
 20
0.0
 30
0.0
 70
   128
 71
    96
 72
   -71
 73
    94
  0
VERTEX
  8
12STG26-MAIN
  5
A1B
 10
0.0
 20
0.0
 30
0.0
 70
   128
 71
   -96
 72
    56
 73
    71
  0
VERTEX
  8
12STG26-MAIN
  5
A1C
 10
0.0
 20
0.0
 30
0.0
 70
   128
 71
    72
 72
   -56
 73
    96
  0
VERTEX
  8
12STG26-MAIN
  5
A1D
 10
0.0
 20
0.0
 30
0.0
 70
   128
 71
   -72
 72
    73
 73
    56
  0
VERTEX
  8
12STG26-MAIN
  5
A1E
 10
0.0
 20
0.0
 30
0.0
 70
   128
 71
    74
 72
   -73
 73
    72
  0
VERTEX
  8
12STG26-MAIN
  5
A1F
 10
0.0
 20
0.0
 30
0.0
 70
   128
 71
   -74
 72
    76
 73
    73
  0
VERTEX
  8
12STG26-MAIN
  5
A20
 10
0.0
 20
0.0
 30
0.0
 70
   128
 71
    75
 72
   -76
 73
    74
  0
VERTEX
  8
12STG26-MAIN
  5
A21
 10
0.0
 20
0.0
 30
0.0
 70
   128
 71
   -75
 72
    60
 73
    76
  0
VERTEX
  8
12STG26-MAIN
  5
A22
 10
0.0
 20
0.0
 30
0.0
 70
   128
 71
    77
 72
   -60
 73
    75
  0
VERTEX
  8
12STG26-MAIN
  5
A23
 10
0.0
 20
0.0
 30
0.0
 70
   128
 71
   -77
 72
    78
 73
    60
  0
VERTEX
  8
12STG26-MAIN
  5
A24
 10
0.0
 20
0.0
 30
0.0
 70
   128
 71
    79
 72
   -78
 73
    77
  0
VERTEX
  8
12STG26-MAIN
  5
A25
 10
0.0
 20
0.0
 30
0.0
 70
   128
 71
   -79
 72
    80
 73
    78
  0
VERTEX
  8
12STG26-MAIN
  5
A26
 10
0.0
 20
0.0
 30
0.0
 70
   128
 71
    82
 72
   -80
 73
    79
  0
VERTEX
  8
12STG26-MAIN
  5
A27
 10
0.0
 20
0.0
 30
0.0
 70
   128
 71
   -82
 72
    81
 73
    80
  0
VERTEX
  8
12STG26-MAIN
  5
A28
 10
0.0
 20
0.0
 30
0.0
 70
   128
 71
   104
 72
   -81
 73
    82
  0
VERTEX
  8
12STG26-MAIN
  5
A29
 10
0.0
 20
0.0
 30
0.0
 70
   128
 71
  -104
 72
    65
 73
    81
  0
VERTEX
  8
12STG26-MAIN
  5
A2A
 10
0.0
 20
0.0
 30
0.0
 70
   128
 71
   106
 72
   -65
 73
   104
  0
VERTEX
  8
12STG26-MAIN
  5
A2B
 10
0.0
 20
0.0
 30
0.0
 70
   128
 71
  -106
 72
    84
 73
    65
  0
VERTEX
  8
12STG26-MAIN
  5
A2C
 10
0.0
 20
0.0
 30
0.0
 70
   128
 71
    83
 72
   -84
 73
   106
  0
VERTEX
  8
12STG26-MAIN
  5
A2D
 10
0.0
 20
0.0
 30
0.0
 70
   128
 71
   -86
 72
    67
 73
    85
  0
VERTEX
  8
12STG26-MAIN
  5
A2E
 10
0.0
 20
0.0
 30
0.0
 70
   128
 71
    87
 72
   -67
 73
    86
  0
VERTEX
  8
12STG26-MAIN
  5
A2F
 10
0.0
 20
0.0
 30
0.0
 70
   128
 71
   -87
 72
    68
 73
    67
  0
VERTEX
  8
12STG26-MAIN
  5
A30
 10
0.0
 20
0.0
 30
0.0
 70
   128
 71
    88
 72
   -68
 73
    87
  0
VERTEX
  8
12STG26-MAIN
  5
A31
 10
0.0
 20
0.0
 30
0.0
 70
   128
 71
   -88
 72
    69
 73
    68
  0
VERTEX
  8
12STG26-MAIN
  5
A32
 10
0.0
 20
0.0
 30
0.0
 70
   128
 71
    89
 72
   -69
 73
    88
  0
VERTEX
  8
12STG26-MAIN
  5
A33
 10
0.0
 20
0.0
 30
0.0
 70
   128
 71
   -89
 72
    90
 73
    69
  0
VERTEX
  8
12STG26-MAIN
  5
A34
 10
0.0
 20
0.0
 30
0.0
 70
   128
 71
    91
 72
   -90
 73
    89
  0
VERTEX
  8
12STG26-MAIN
  5
A35
 10
0.0
 20
0.0
 30
0.0
 70
   128
 71
   -91
 72
    92
 73
    90
  0
VERTEX
  8
12STG26-MAIN
  5
A36
 10
0.0
 20
0.0
 30
0.0
 70
   128
 71
    93
 72
   -92
 73
    91
  0
VERTEX
  8
12STG26-MAIN
  5
A37
 10
0.0
 20
0.0
 30
0.0
 70
   128
 71
   -93
 72
    94
 73
    92
  0
VERTEX
  8
12STG26-MAIN
  5
A38
 10
0.0
 20
0.0
 30
0.0
 70
   128
 71
    95
 72
   -94
 73
    93
  0
VERTEX
  8
12STG26-MAIN
  5
A39
 10
0.0
 20
0.0
 30
0.0
 70
   128
 71
   -95
 72
    96
 73
    94
  0
VERTEX
  8
12STG26-MAIN
  5
A3A
 10
0.0
 20
0.0
 30
0.0
 70
   128
 71
    97
 72
   -96
 73
    95
  0
VERTEX
  8
12STG26-MAIN
  5
A3B
 10
0.0
 20
0.0
 30
0.0
 70
   128
 71
   -97
 72
    72
 73
    96
  0
VERTEX
  8
12STG26-MAIN
  5
A3C
 10
0.0
 20
0.0
 30
0.0
 70
   128
 71
    98
 72
   -72
 73
    97
  0
VERTEX
  8
12STG26-MAIN
  5
A3D
 10
0.0
 20
0.0
 30
0.0
 70
   128
 71
   -98
 72
    74
 73
    72
  0
VERTEX
  8
12STG26-MAIN
  5
A3E
 10
0.0
 20
0.0
 30
0.0
 70
   128
 71
    99
 72
   -74
 73
    98
  0
VERTEX
  8
12STG26-MAIN
  5
A3F
 10
0.0
 20
0.0
 30
0.0
 70
   128
 71
   -99
 72
    75
 73
    74
  0
VERTEX
  8
12STG26-MAIN
  5
A40
 10
0.0
 20
0.0
 30
0.0
 70
   128
 71
   100
 72
   -75
 73
    99
  0
VERTEX
  8
12STG26-MAIN
  5
A41
 10
0.0
 20
0.0
 30
0.0
 70
   128
 71
  -100
 72
    77
 73
    75
  0
VERTEX
  8
12STG26-MAIN
  5
A42
 10
0.0
 20
0.0
 30
0.0
 70
   128
 71
   101
 72
   -77
 73
   100
  0
VERTEX
  8
12STG26-MAIN
  5
A43
 10
0.0
 20
0.0
 30
0.0
 70
   128
 71
  -101
 72
    79
 73
    77
  0
VERTEX
  8
12STG26-MAIN
  5
A44
 10
0.0
 20
0.0
 30
0.0
 70
   128
 71
   102
 72
   -79
 73
   101
  0
VERTEX
  8
12STG26-MAIN
  5
A45
 10
0.0
 20
0.0
 30
0.0
 70
   128
 71
  -102
 72
    82
 73
    79
  0
VERTEX
  8
12STG26-MAIN
  5
A46
 10
0.0
 20
0.0
 30
0.0
 70
   128
 71
   103
 72
   -82
 73
   102
  0
VERTEX
  8
12STG26-MAIN
  5
A47
 10
0.0
 20
0.0
 30
0.0
 70
   128
 71
  -103
 72
   104
 73
    82
  0
VERTEX
  8
12STG26-MAIN
  5
A48
 10
0.0
 20
0.0
 30
0.0
 70
   128
 71
   105
 72
  -104
 73
   103
  0
VERTEX
  8
12STG26-MAIN
  5
A49
 10
0.0
 20
0.0
 30
0.0
 70
   128
 71
  -105
 72
   106
 73
   104
  0
VERTEX
  8
12STG26-MAIN
  5
A4A
 10
0.0
 20
0.0
 30
0.0
 70
   128
 71
   107
 72
  -106
 73
   105
  0
VERTEX
  8
12STG26-MAIN
  5
A4B
 10
0.0
 20
0.0
 30
0.0
 70
   128
 71
  -107
 72
    83
 73
   106
  0
VERTEX
  8
12STG26-MAIN
  5
A4C
 10
0.0
 20
0.0
 30
0.0
 70
   128
 71
   108
 72
   -83
 73
   107
  0
VERTEX
  8
12STG26-MAIN
  5
A4D
 10
0.0
 20
0.0
 30
0.0
 70
   128
 71
  -112
 72
   111
 73
   109
  0
VERTEX
  8
12STG26-MAIN
  5
A4E
 10
0.0
 20
0.0
 30
0.0
 70
   128
 71
   110
 72
  -111
 73
   112
  0
VERTEX
  8
12STG26-MAIN
  5
A4F
 10
0.0
 20
0.0
 30
0.0
 70
   128
 71
  -113
 72
   109
 73
   140
  0
VERTEX
  8
12STG26-MAIN
  5
A50
 10
0.0
 20
0.0
 30
0.0
 70
   128
 71
   112
 72
  -109
 73
   113
  0
VERTEX
  8
12STG26-MAIN
  5
A51
 10
0.0
 20
0.0
 30
0.0
 70
   128
 71
  -115
 72
   140
 73
   139
  0
VERTEX
  8
12STG26-MAIN
  5
A52
 10
0.0
 20
0.0
 30
0.0
 70
   128
 71
   113
 72
  -140
 73
   115
  0
VERTEX
  8
12STG26-MAIN
  5
A53
 10
0.0
 20
0.0
 30
0.0
 70
   128
 71
  -114
 72
   139
 73
   117
  0
VERTEX
  8
12STG26-MAIN
  5
A54
 10
0.0
 20
0.0
 30
0.0
 70
   128
 71
   115
 72
  -139
 73
   114
  0
VERTEX
  8
12STG26-MAIN
  5
A55
 10
0.0
 20
0.0
 30
0.0
 70
   128
 71
  -116
 72
   117
 73
   120
  0
VERTEX
  8
12STG26-MAIN
  5
A56
 10
0.0
 20
0.0
 30
0.0
 70
   128
 71
   114
 72
  -117
 73
   116
  0
VERTEX
  8
12STG26-MAIN
  5
A57
 10
0.0
 20
0.0
 30
0.0
 70
   128
 71
  -119
 72
   120
 73
   118
  0
VERTEX
  8
12STG26-MAIN
  5
A58
 10
0.0
 20
0.0
 30
0.0
 70
   128
 71
   116
 72
  -120
 73
   119
  0
VERTEX
  8
12STG26-MAIN
  5
A59
 10
0.0
 20
0.0
 30
0.0
 70
   128
 71
  -121
 72
   118
 73
   144
  0
VERTEX
  8
12STG26-MAIN
  5
A5A
 10
0.0
 20
0.0
 30
0.0
 70
   128
 71
   119
 72
  -118
 73
   121
  0
VERTEX
  8
12STG26-MAIN
  5
A5B
 10
0.0
 20
0.0
 30
0.0
 70
   128
 71
  -122
 72
   144
 73
   124
  0
VERTEX
  8
12STG26-MAIN
  5
A5C
 10
0.0
 20
0.0
 30
0.0
 70
   128
 71
   121
 72
  -144
 73
   122
  0
VERTEX
  8
12STG26-MAIN
  5
A5D
 10
0.0
 20
0.0
 30
0.0
 70
   128
 71
  -127
 72
   124
 73
   123
  0
VERTEX
  8
12STG26-MAIN
  5
A5E
 10
0.0
 20
0.0
 30
0.0
 70
   128
 71
   122
 72
  -124
 73
   127
  0
VERTEX
  8
12STG26-MAIN
  5
A5F
 10
0.0
 20
0.0
 30
0.0
 70
   128
 71
  -126
 72
   123
 73
   125
  0
VERTEX
  8
12STG26-MAIN
  5
A60
 10
0.0
 20
0.0
 30
0.0
 70
   128
 71
   127
 72
  -123
 73
   126
  0
VERTEX
  8
12STG26-MAIN
  5
A61
 10
0.0
 20
0.0
 30
0.0
 70
   128
 71
  -129
 72
   125
 73
   128
  0
VERTEX
  8
12STG26-MAIN
  5
A62
 10
0.0
 20
0.0
 30
0.0
 70
   128
 71
   126
 72
  -125
 73
   129
  0
VERTEX
  8
12STG26-MAIN
  5
A63
 10
0.0
 20
0.0
 30
0.0
 70
   128
 71
  -131
 72
   128
 73
   130
  0
VERTEX
  8
12STG26-MAIN
  5
A64
 10
0.0
 20
0.0
 30
0.0
 70
   128
 71
   129
 72
  -128
 73
   131
  0
VERTEX
  8
12STG26-MAIN
  5
A65
 10
0.0
 20
0.0
 30
0.0
 70
   128
 71
  -133
 72
   130
 73
   134
  0
VERTEX
  8
12STG26-MAIN
  5
A66
 10
0.0
 20
0.0
 30
0.0
 70
   128
 71
   131
 72
  -130
 73
   133
  0
VERTEX
  8
12STG26-MAIN
  5
A67
 10
0.0
 20
0.0
 30
0.0
 70
   128
 71
  -136
 72
   134
 73
   132
  0
VERTEX
  8
12STG26-MAIN
  5
A68
 10
0.0
 20
0.0
 30
0.0
 70
   128
 71
   133
 72
  -134
 73
   136
  0
VERTEX
  8
12STG26-MAIN
  5
A69
 10
0.0
 20
0.0
 30
0.0
 70
   128
 71
  -135
 72
   132
 73
   149
  0
VERTEX
  8
12STG26-MAIN
  5
A6A
 10
0.0
 20
0.0
 30
0.0
 70
   128
 71
   136
 72
  -132
 73
   135
  0
VERTEX
  8
12STG26-MAIN
  5
A6B
 10
0.0
 20
0.0
 30
0.0
 70
   128
 71
  -138
 72
   149
 73
   137
  0
VERTEX
  8
12STG26-MAIN
  5
A6C
 10
0.0
 20
0.0
 30
0.0
 70
   128
 71
   135
 72
  -149
 73
   138
  0
VERTEX
  8
12STG26-MAIN
  5
A6D
 10
0.0
 20
0.0
 30
0.0
 70
   128
 71
  -109
 72
   152
 73
   151
  0
VERTEX
  8
12STG26-MAIN
  5
A6E
 10
0.0
 20
0.0
 30
0.0
 70
   128
 71
   111
 72
  -152
 73
   109
  0
VERTEX
  8
12STG26-MAIN
  5
A6F
 10
0.0
 20
0.0
 30
0.0
 70
   128
 71
  -140
 72
   151
 73
   155
  0
VERTEX
  8
12STG26-MAIN
  5
A70
 10
0.0
 20
0.0
 30
0.0
 70
   128
 71
   109
 72
  -151
 73
   140
  0
VERTEX
  8
12STG26-MAIN
  5
A71
 10
0.0
 20
0.0
 30
0.0
 70
   128
 71
  -139
 72
   155
 73
   157
  0
VERTEX
  8
12STG26-MAIN
  5
A72
 10
0.0
 20
0.0
 30
0.0
 70
   128
 71
   140
 72
  -155
 73
   139
  0
VERTEX
  8
12STG26-MAIN
  5
A73
 10
0.0
 20
0.0
 30
0.0
 70
   128
 71
  -117
 72
   157
 73
   159
  0
VERTEX
  8
12STG26-MAIN
  5
A74
 10
0.0
 20
0.0
 30
0.0
 70
   128
 71
   139
 72
  -157
 73
   117
  0
VERTEX
  8
12STG26-MAIN
  5
A75
 10
0.0
 20
0.0
 30
0.0
 70
   128
 71
  -120
 72
   159
 73
   141
  0
VERTEX
  8
12STG26-MAIN
  5
A76
 10
0.0
 20
0.0
 30
0.0
 70
   128
 71
   117
 72
  -159
 73
   120
  0
VERTEX
  8
12STG26-MAIN
  5
A77
 10
0.0
 20
0.0
 30
0.0
 70
   128
 71
  -118
 72
   141
 73
   142
  0
VERTEX
  8
12STG26-MAIN
  5
A78
 10
0.0
 20
0.0
 30
0.0
 70
   128
 71
   120
 72
  -141
 73
   118
  0
VERTEX
  8
12STG26-MAIN
  5
A79
 10
0.0
 20
0.0
 30
0.0
 70
   128
 71
  -144
 72
   142
 73
   143
  0
VERTEX
  8
12STG26-MAIN
  5
A7A
 10
0.0
 20
0.0
 30
0.0
 70
   128
 71
   118
 72
  -142
 73
   144
  0
VERTEX
  8
12STG26-MAIN
  5
A7B
 10
0.0
 20
0.0
 30
0.0
 70
   128
 71
  -124
 72
   143
 73
   163
  0
VERTEX
  8
12STG26-MAIN
  5
A7C
 10
0.0
 20
0.0
 30
0.0
 70
   128
 71
   144
 72
  -143
 73
   124
  0
VERTEX
  8
12STG26-MAIN
  5
A7D
 10
0.0
 20
0.0
 30
0.0
 70
   128
 71
  -123
 72
   163
 73
   166
  0
VERTEX
  8
12STG26-MAIN
  5
A7E
 10
0.0
 20
0.0
 30
0.0
 70
   128
 71
   124
 72
  -163
 73
   123
  0
VERTEX
  8
12STG26-MAIN
  5
A7F
 10
0.0
 20
0.0
 30
0.0
 70
   128
 71
  -125
 72
   166
 73
   145
  0
VERTEX
  8
12STG26-MAIN
  5
A80
 10
0.0
 20
0.0
 30
0.0
 70
   128
 71
   123
 72
  -166
 73
   125
  0
VERTEX
  8
12STG26-MAIN
  5
A81
 10
0.0
 20
0.0
 30
0.0
 70
   128
 71
  -128
 72
   145
 73
   147
  0
VERTEX
  8
12STG26-MAIN
  5
A82
 10
0.0
 20
0.0
 30
0.0
 70
   128
 71
   125
 72
  -145
 73
   128
  0
VERTEX
  8
12STG26-MAIN
  5
A83
 10
0.0
 20
0.0
 30
0.0
 70
   128
 71
  -130
 72
   147
 73
   146
  0
VERTEX
  8
12STG26-MAIN
  5
A84
 10
0.0
 20
0.0
 30
0.0
 70
   128
 71
   128
 72
  -147
 73
   130
  0
VERTEX
  8
12STG26-MAIN
  5
A85
 10
0.0
 20
0.0
 30
0.0
 70
   128
 71
  -134
 72
   146
 73
   148
  0
VERTEX
  8
12STG26-MAIN
  5
A86
 10
0.0
 20
0.0
 30
0.0
 70
   128
 71
   130
 72
  -146
 73
   134
  0
VERTEX
  8
12STG26-MAIN
  5
A87
 10
0.0
 20
0.0
 30
0.0
 70
   128
 71
  -132
 72
   148
 73
   172
  0
VERTEX
  8
12STG26-MAIN
  5
A88
 10
0.0
 20
0.0
 30
0.0
 70
   128
 71
   134
 72
  -148
 73
   132
  0
VERTEX
  8
12STG26-MAIN
  5
A89
 10
0.0
 20
0.0
 30
0.0
 70
   128
 71
  -149
 72
   172
 73
   150
  0
VERTEX
  8
12STG26-MAIN
  5
A8A
 10
0.0
 20
0.0
 30
0.0
 70
   128
 71
   132
 72
  -172
 73
   149
  0
VERTEX
  8
12STG26-MAIN
  5
A8B
 10
0.0
 20
0.0
 30
0.0
 70
   128
 71
  -137
 72
   150
 73
   175
  0
VERTEX
  8
12STG26-MAIN
  5
A8C
 10
0.0
 20
0.0
 30
0.0
 70
   128
 71
   149
 72
  -150
 73
   137
  0
VERTEX
  8
12STG26-MAIN
  5
A8D
 10
0.0
 20
0.0
 30
0.0
 70
   128
 71
  -151
 72
   153
 73
   156
  0
VERTEX
  8
12STG26-MAIN
  5
A8E
 10
0.0
 20
0.0
 30
0.0
 70
   128
 71
   152
 72
  -153
 73
   151
  0
VERTEX
  8
12STG26-MAIN
  5
A8F
 10
0.0
 20
0.0
 30
0.0
 70
   128
 71
  -155
 72
   156
 73
   154
  0
VERTEX
  8
12STG26-MAIN
  5
A90
 10
0.0
 20
0.0
 30
0.0
 70
   128
 71
   151
 72
  -156
 73
   155
  0
VERTEX
  8
12STG26-MAIN
  5
A91
 10
0.0
 20
0.0
 30
0.0
 70
   128
 71
  -157
 72
   154
 73
   158
  0
VERTEX
  8
12STG26-MAIN
  5
A92
 10
0.0
 20
0.0
 30
0.0
 70
   128
 71
   155
 72
  -154
 73
   157
  0
VERTEX
  8
12STG26-MAIN
  5
A93
 10
0.0
 20
0.0
 30
0.0
 70
   128
 71
  -159
 72
   158
 73
   160
  0
VERTEX
  8
12STG26-MAIN
  5
A94
 10
0.0
 20
0.0
 30
0.0
 70
   128
 71
   157
 72
  -158
 73
   159
  0
VERTEX
  8
12STG26-MAIN
  5
A95
 10
0.0
 20
0.0
 30
0.0
 70
   128
 71
  -141
 72
   160
 73
   162
  0
VERTEX
  8
12STG26-MAIN
  5
A96
 10
0.0
 20
0.0
 30
0.0
 70
   128
 71
   159
 72
  -160
 73
   141
  0
VERTEX
  8
12STG26-MAIN
  5
A97
 10
0.0
 20
0.0
 30
0.0
 70
   128
 71
  -142
 72
   162
 73
   161
  0
VERTEX
  8
12STG26-MAIN
  5
A98
 10
0.0
 20
0.0
 30
0.0
 70
   128
 71
   141
 72
  -162
 73
   142
  0
VERTEX
  8
12STG26-MAIN
  5
A99
 10
0.0
 20
0.0
 30
0.0
 70
   128
 71
  -143
 72
   161
 73
   164
  0
VERTEX
  8
12STG26-MAIN
  5
A9A
 10
0.0
 20
0.0
 30
0.0
 70
   128
 71
   142
 72
  -161
 73
   143
  0
VERTEX
  8
12STG26-MAIN
  5
A9B
 10
0.0
 20
0.0
 30
0.0
 70
   128
 71
  -163
 72
   164
 73
   167
  0
VERTEX
  8
12STG26-MAIN
  5
A9C
 10
0.0
 20
0.0
 30
0.0
 70
   128
 71
   143
 72
  -164
 73
   163
  0
VERTEX
  8
12STG26-MAIN
  5
A9D
 10
0.0
 20
0.0
 30
0.0
 70
   128
 71
  -166
 72
   167
 73
   165
  0
VERTEX
  8
12STG26-MAIN
  5
A9E
 10
0.0
 20
0.0
 30
0.0
 70
   128
 71
   163
 72
  -167
 73
   166
  0
VERTEX
  8
12STG26-MAIN
  5
A9F
 10
0.0
 20
0.0
 30
0.0
 70
   128
 71
  -145
 72
   165
 73
   168
  0
VERTEX
  8
12STG26-MAIN
  5
AA0
 10
0.0
 20
0.0
 30
0.0
 70
   128
 71
   166
 72
  -165
 73
   145
  0
VERTEX
  8
12STG26-MAIN
  5
AA1
 10
0.0
 20
0.0
 30
0.0
 70
   128
 71
  -147
 72
   168
 73
   170
  0
VERTEX
  8
12STG26-MAIN
  5
AA2
 10
0.0
 20
0.0
 30
0.0
 70
   128
 71
   145
 72
  -168
 73
   147
  0
VERTEX
  8
12STG26-MAIN
  5
AA3
 10
0.0
 20
0.0
 30
0.0
 70
   128
 71
  -146
 72
   170
 73
   169
  0
VERTEX
  8
12STG26-MAIN
  5
AA4
 10
0.0
 20
0.0
 30
0.0
 70
   128
 71
   147
 72
  -170
 73
   146
  0
VERTEX
  8
12STG26-MAIN
  5
AA5
 10
0.0
 20
0.0
 30
0.0
 70
   128
 71
  -148
 72
   169
 73
   171
  0
VERTEX
  8
12STG26-MAIN
  5
AA6
 10
0.0
 20
0.0
 30
0.0
 70
   128
 71
   146
 72
  -169
 73
   148
  0
VERTEX
  8
12STG26-MAIN
  5
AA7
 10
0.0
 20
0.0
 30
0.0
 70
   128
 71
  -172
 72
   171
 73
   173
  0
VERTEX
  8
12STG26-MAIN
  5
AA8
 10
0.0
 20
0.0
 30
0.0
 70
   128
 71
   148
 72
  -171
 73
   172
  0
VERTEX
  8
12STG26-MAIN
  5
AA9
 10
0.0
 20
0.0
 30
0.0
 70
   128
 71
  -150
 72
   173
 73
   176
  0
VERTEX
  8
12STG26-MAIN
  5
AAA
 10
0.0
 20
0.0
 30
0.0
 70
   128
 71
   172
 72
  -173
 73
   150
  0
VERTEX
  8
12STG26-MAIN
  5
AAB
 10
0.0
 20
0.0
 30
0.0
 70
   128
 71
  -175
 72
   176
 73
   174
  0
VERTEX
  8
12STG26-MAIN
  5
AAC
 10
0.0
 20
0.0
 30
0.0
 70
   128
 71
   150
 72
  -176
 73
   175
  0
VERTEX
  8
12STG26-MAIN
  5
AAD
 10
0.0
 20
0.0
 30
0.0
 70
   128
 71
  -182
 72
   178
 73
   177
  0
VERTEX
  8
12STG26-MAIN
  5
AAE
 10
0.0
 20
0.0
 30
0.0
 70
   128
 71
   179
 72
  -178
 73
   182
  0
VERTEX
  8
12STG26-MAIN
  5
AAF
 10
0.0
 20
0.0
 30
0.0
 70
   128
 71
  -181
 72
   177
 73
   180
  0
VERTEX
  8
12STG26-MAIN
  5
AB0
 10
0.0
 20
0.0
 30
0.0
 70
   128
 71
   182
 72
  -177
 73
   181
  0
VERTEX
  8
12STG26-MAIN
  5
AB1
 10
0.0
 20
0.0
 30
0.0
 70
   128
 71
  -183
 72
   187
 73
   186
  0
VERTEX
  8
12STG26-MAIN
  5
AB2
 10
0.0
 20
0.0
 30
0.0
 70
   128
 71
   184
 72
  -187
 73
   183
  0
VERTEX
  8
12STG26-MAIN
  5
AB3
 10
0.0
 20
0.0
 30
0.0
 70
   128
 71
  -186
 72
   188
 73
   185
  0
VERTEX
  8
12STG26-MAIN
  5
AB4
 10
0.0
 20
0.0
 30
0.0
 70
   128
 71
   187
 72
  -188
 73
   186
  0
VERTEX
  8
12STG26-MAIN
  5
AB5
 10
0.0
 20
0.0
 30
0.0
 70
   128
 71
  -193
 72
   189
 73
   192
  0
VERTEX
  8
12STG26-MAIN
  5
AB6
 10
0.0
 20
0.0
 30
0.0
 70
   128
 71
   193
 72
   190
 73
  -189
  0
VERTEX
  8
12STG26-MAIN
  5
AB7
 10
0.0
 20
0.0
 30
0.0
 70
   128
 71
  -191
 72
   192
 73
   195
  0
VERTEX
  8
12STG26-MAIN
  5
AB8
 10
0.0
 20
0.0
 30
0.0
 70
   128
 71
   191
 72
   193
 73
  -192
  0
VERTEX
  8
12STG26-MAIN
  5
AB9
 10
0.0
 20
0.0
 30
0.0
 70
   128
 71
  -196
 72
   195
 73
   194
  0
VERTEX
  8
12STG26-MAIN
  5
ABA
 10
0.0
 20
0.0
 30
0.0
 70
   128
 71
   196
 72
   191
 73
  -195
  0
VERTEX
  8
12STG26-MAIN
  5
ABB
 10
0.0
 20
0.0
 30
0.0
 70
   128
 71
  -200
 72
   194
 73
   198
  0
VERTEX
  8
12STG26-MAIN
  5
ABC
 10
0.0
 20
0.0
 30
0.0
 70
   128
 71
   200
 72
   196
 73
  -194
  0
VERTEX
  8
12STG26-MAIN
  5
ABD
 10
0.0
 20
0.0
 30
0.0
 70
   128
 71
  -199
 72
   198
 73
   197
  0
VERTEX
  8
12STG26-MAIN
  5
ABE
 10
0.0
 20
0.0
 30
0.0
 70
   128
 71
   199
 72
   200
 73
  -198
  0
VERTEX
  8
12STG26-MAIN
  5
ABF
 10
0.0
 20
0.0
 30
0.0
 70
   128
 71
  -201
 72
   197
 73
   202
  0
VERTEX
  8
12STG26-MAIN
  5
AC0
 10
0.0
 20
0.0
 30
0.0
 70
   128
 71
   201
 72
   199
 73
  -197
  0
VERTEX
  8
12STG26-MAIN
  5
AC1
 10
0.0
 20
0.0
 30
0.0
 70
   128
 71
  -203
 72
   202
 73
   206
  0
VERTEX
  8
12STG26-MAIN
  5
AC2
 10
0.0
 20
0.0
 30
0.0
 70
   128
 71
   203
 72
   201
 73
  -202
  0
VERTEX
  8
12STG26-MAIN
  5
AC3
 10
0.0
 20
0.0
 30
0.0
 70
   128
 71
  -205
 72
   206
 73
   204
  0
VERTEX
  8
12STG26-MAIN
  5
AC4
 10
0.0
 20
0.0
 30
0.0
 70
   128
 71
   205
 72
   203
 73
  -206
  0
VERTEX
  8
12STG26-MAIN
  5
AC5
 10
0.0
 20
0.0
 30
0.0
 70
   128
 71
  -208
 72
   204
 73
   207
  0
VERTEX
  8
12STG26-MAIN
  5
AC6
 10
0.0
 20
0.0
 30
0.0
 70
   128
 71
   208
 72
   205
 73
  -204
  0
VERTEX
  8
12STG26-MAIN
  5
AC7
 10
0.0
 20
0.0
 30
0.0
 70
   128
 71
  -210
 72
   207
 73
   209
  0
VERTEX
  8
12STG26-MAIN
  5
AC8
 10
0.0
 20
0.0
 30
0.0
 70
   128
 71
   210
 72
   208
 73
  -207
  0
VERTEX
  8
12STG26-MAIN
  5
AC9
 10
0.0
 20
0.0
 30
0.0
 70
   128
 71
  -212
 72
   209
 73
   211
  0
VERTEX
  8
12STG26-MAIN
  5
ACA
 10
0.0
 20
0.0
 30
0.0
 70
   128
 71
   212
 72
   210
 73
  -209
  0
VERTEX
  8
12STG26-MAIN
  5
ACB
 10
0.0
 20
0.0
 30
0.0
 70
   128
 71
  -215
 72
   211
 73
   214
  0
VERTEX
  8
12STG26-MAIN
  5
ACC
 10
0.0
 20
0.0
 30
0.0
 70
   128
 71
   215
 72
   212
 73
  -211
  0
VERTEX
  8
12STG26-MAIN
  5
ACD
 10
0.0
 20
0.0
 30
0.0
 70
   128
 71
  -216
 72
   214
 73
   213
  0
VERTEX
  8
12STG26-MAIN
  5
ACE
 10
0.0
 20
0.0
 30
0.0
 70
   128
 71
   216
 72
   215
 73
  -214
  0
SEQEND
  8
12STG26-MAIN
  5
ACF
  0
POLYLINE
  8
12STG26-MAIN
  5
AD0
 66
     1
 10
0.0
 20
0.0
 30
0.0
 70
    64
 71
    86
 72
    74
1001
AVE_ENTITY_MATERIAL
1002
{
1000

1002
{
1071
        0
1070
     0
1070
     0
1002
{
1070
     0
1070
     0
1070
     0
1040
0.0
1002
}
1070
     0
1070
     0
1002
{
1002
}
1002
}
1002
{
1002
}
1002
{
1002
}
1011
0.0
1021
0.0
1031
0.0
1011
1.0
1021
0.0
1031
0.0
1011
0.0
1021
1.0
1031
0.0
1011
0.0
1021
0.0
1031
1.0
1002
}
1001
AVE_FINISH
1002
{
1070
     0
1005
B72
1002
}
  0
VERTEX
  8
12STG26-MAIN
  5
AD1
 10
1.828
 20
2.003
 30
18.11
 70
   192
  0
VERTEX
  8
12STG26-MAIN
  5
AD2
 10
1.979
 20
0.391
 30
18.148
 70
   192
  0
VERTEX
  8
12STG26-MAIN
  5
AD3
 10
2.93
 20
2.003
 30
18.386
 70
   192
  0
VERTEX
  8
12STG26-MAIN
  5
AD4
 10
3.083
 20
0.391
 30
18.424
 70
   192
  0
VERTEX
  8
12STG26-MAIN
  5
AD5
 10
0.439
 20
0.444
 30
37.369
 70
   192
  0
VERTEX
  8
12STG26-MAIN
  5
AD6
 10
1.542
 20
0.444
 30
37.645
 70
   192
  0
VERTEX
  8
12STG26-MAIN
  5
AD7
 10
1.456
 20
1.16
 30
37.866
 70
   192
  0
VERTEX
  8
12STG26-MAIN
  5
AD8
 10
1.39
 20
0.618
 30
39.352
 70
   192
  0
VERTEX
  8
12STG26-MAIN
  5
AD9
 10
1.32
 20
1.302
 30
39.396
 70
   192
  0
VERTEX
  8
12STG26-MAIN
  5
ADA
 10
0.217
 20
1.302
 30
39.12
 70
   192
  0
VERTEX
  8
12STG26-MAIN
  5
ADB
 10
1.459
 20
-0.065
 30
39.307
 70
   192
  0
VERTEX
  8
12STG26-MAIN
  5
ADC
 10
0.356
 20
-0.065
 30
39.031
 70
   192
  0
VERTEX
  8
12STG26-MAIN
  5
ADD
 10
0.287
 20
0.618
 30
39.076
 70
   192
  0
VERTEX
  8
12STG26-MAIN
  5
ADE
 10
0.144
 20
4.154
 30
36.596
 70
   192
  0
VERTEX
  8
12STG26-MAIN
  5
ADF
 10
1.247
 20
4.154
 30
36.872
 70
   192
  0
VERTEX
  8
12STG26-MAIN
  5
AE0
 10
0.203
 20
2.951
 30
37.303
 70
   192
  0
VERTEX
  8
12STG26-MAIN
  5
AE1
 10
1.306
 20
2.951
 30
37.579
 70
   192
  0
VERTEX
  8
12STG26-MAIN
  5
AE2
 10
1.156
 20
3.28
 30
39.064
 70
   192
  0
VERTEX
  8
12STG26-MAIN
  5
AE3
 10
0.053
 20
3.28
 30
38.788
 70
   192
  0
VERTEX
  8
12STG26-MAIN
  5
AE4
 10
1.128
 20
3.92
 30
38.64
 70
   192
  0
VERTEX
  8
12STG26-MAIN
  5
AE5
 10
0.025
 20
3.92
 30
38.364
 70
   192
  0
VERTEX
  8
12STG26-MAIN
  5
AE6
 10
1.102
 20
4.56
 30
38.215
 70
   192
  0
VERTEX
  8
12STG26-MAIN
  5
AE7
 10
1.381
 20
2.056
 30
37.723
 70
   192
  0
VERTEX
  8
12STG26-MAIN
  5
AE8
 10
0.353
 20
1.16
 30
37.59
 70
   192
  0
VERTEX
  8
12STG26-MAIN
  5
AE9
 10
0.278
 20
2.056
 30
37.447
 70
   192
  0
VERTEX
  8
12STG26-MAIN
  5
AEA
 10
0.506
 20
-1.238
 30
38.558
 70
   192
  0
VERTEX
  8
12STG26-MAIN
  5
AEB
 10
1.609
 20
-1.238
 30
38.834
 70
   192
  0
VERTEX
  8
12STG26-MAIN
  5
AEC
 10
1.63
 20
-0.272
 30
37.423
 70
   192
  0
VERTEX
  8
12STG26-MAIN
  5
AED
 10
0.526
 20
-0.272
 30
37.147
 70
   192
  0
VERTEX
  8
12STG26-MAIN
  5
AEE
 10
0.144
 20
12.71
 30
36.596
 70
   192
  0
VERTEX
  8
12STG26-MAIN
  5
AEF
 10
1.247
 20
12.71
 30
36.872
 70
   192
  0
VERTEX
  8
12STG26-MAIN
  5
AF0
 10
1.306
 20
13.914
 30
37.579
 70
   192
  0
VERTEX
  8
12STG26-MAIN
  5
AF1
 10
1.381
 20
14.809
 30
37.723
 70
   192
  0
VERTEX
  8
12STG26-MAIN
  5
AF2
 10
0.203
 20
13.914
 30
37.303
 70
   192
  0
VERTEX
  8
12STG26-MAIN
  5
AF3
 10
0.278
 20
14.809
 30
37.447
 70
   192
  0
VERTEX
  8
12STG26-MAIN
  5
AF4
 10
0.439
 20
16.421
 30
37.369
 70
   192
  0
VERTEX
  8
12STG26-MAIN
  5
AF5
 10
0.353
 20
15.704
 30
37.59
 70
   192
  0
VERTEX
  8
12STG26-MAIN
  5
AF6
 10
1.542
 20
16.421
 30
37.645
 70
   192
  0
VERTEX
  8
12STG26-MAIN
  5
AF7
 10
1.456
 20
15.704
 30
37.866
 70
   192
  0
VERTEX
  8
12STG26-MAIN
  5
AF8
 10
1.63
 20
17.137
 30
37.423
 70
   192
  0
VERTEX
  8
12STG26-MAIN
  5
AF9
 10
0.526
 20
17.137
 30
37.147
 70
   192
  0
VERTEX
  8
12STG26-MAIN
  5
AFA
 10
-0.002
 20
12.305
 30
37.939
 70
   192
  0
VERTEX
  8
12STG26-MAIN
  5
AFB
 10
1.128
 20
12.944
 30
38.64
 70
   192
  0
VERTEX
  8
12STG26-MAIN
  5
AFC
 10
0.053
 20
13.585
 30
38.788
 70
   192
  0
VERTEX
  8
12STG26-MAIN
  5
AFD
 10
0.025
 20
12.944
 30
38.364
 70
   192
  0
VERTEX
  8
12STG26-MAIN
  5
AFE
 10
1.156
 20
13.585
 30
39.064
 70
   192
  0
VERTEX
  8
12STG26-MAIN
  5
AFF
 10
1.39
 20
16.247
 30
39.352
 70
   192
  0
VERTEX
  8
12STG26-MAIN
  5
B00
 10
0.287
 20
16.247
 30
39.076
 70
   192
  0
VERTEX
  8
12STG26-MAIN
  5
B01
 10
1.32
 20
15.563
 30
39.396
 70
   192
  0
VERTEX
  8
12STG26-MAIN
  5
B02
 10
0.217
 20
15.563
 30
39.12
 70
   192
  0
VERTEX
  8
12STG26-MAIN
  5
B03
 10
0.506
 20
18.103
 30
38.558
 70
   192
  0
VERTEX
  8
12STG26-MAIN
  5
B04
 10
0.356
 20
16.93
 30
39.031
 70
   192
  0
VERTEX
  8
12STG26-MAIN
  5
B05
 10
1.459
 20
16.93
 30
39.307
 70
   192
  0
VERTEX
  8
12STG26-MAIN
  5
B06
 10
1.609
 20
18.103
 30
38.834
 70
   192
  0
VERTEX
  8
12STG26-MAIN
  5
B07
 10
1.422
 20
6.722
 30
34.102
 70
   192
  0
VERTEX
  8
12STG26-MAIN
  5
B08
 10
0.319
 20
10.142
 30
33.826
 70
   192
  0
VERTEX
  8
12STG26-MAIN
  5
B09
 10
1.422
 20
10.142
 30
34.102
 70
   192
  0
VERTEX
  8
12STG26-MAIN
  5
B0A
 10
1.38
 20
11.185
 30
34.619
 70
   192
  0
VERTEX
  8
12STG26-MAIN
  5
B0B
 10
0.277
 20
11.185
 30
34.343
 70
   192
  0
VERTEX
  8
12STG26-MAIN
  5
B0C
 10
-0.124
 20
11.227
 30
39.367
 70
   192
  0
VERTEX
  8
12STG26-MAIN
  5
B0D
 10
1.102
 20
12.305
 30
38.215
 70
   192
  0
VERTEX
  8
12STG26-MAIN
  5
B0E
 10
0.932
 20
10.469
 30
40.234
 70
   192
  0
VERTEX
  8
12STG26-MAIN
  5
B0F
 10
0.979
 20
11.227
 30
39.643
 70
   192
  0
VERTEX
  8
12STG26-MAIN
  5
B10
 10
-0.172
 20
10.469
 30
39.958
 70
   192
  0
VERTEX
  8
12STG26-MAIN
  5
B11
 10
0.902
 20
9.487
 30
40.609
 70
   192
  0
VERTEX
  8
12STG26-MAIN
  5
B12
 10
-0.202
 20
9.487
 30
40.333
 70
   192
  0
VERTEX
  8
12STG26-MAIN
  5
B13
 10
1.38
 20
5.68
 30
34.619
 70
   192
  0
VERTEX
  8
12STG26-MAIN
  5
B14
 10
0.277
 20
5.68
 30
34.343
 70
   192
  0
VERTEX
  8
12STG26-MAIN
  5
B15
 10
0.319
 20
6.722
 30
33.826
 70
   192
  0
VERTEX
  8
12STG26-MAIN
  5
B16
 10
0.979
 20
5.638
 30
39.643
 70
   192
  0
VERTEX
  8
12STG26-MAIN
  5
B17
 10
-0.002
 20
4.56
 30
37.939
 70
   192
  0
VERTEX
  8
12STG26-MAIN
  5
B18
 10
0.932
 20
6.396
 30
40.234
 70
   192
  0
VERTEX
  8
12STG26-MAIN
  5
B19
 10
-0.172
 20
6.396
 30
39.958
 70
   192
  0
VERTEX
  8
12STG26-MAIN
  5
B1A
 10
-0.124
 20
5.638
 30
39.367
 70
   192
  0
VERTEX
  8
12STG26-MAIN
  5
B1B
 10
-0.202
 20
7.378
 30
40.333
 70
   192
  0
VERTEX
  8
12STG26-MAIN
  5
B1C
 10
0.902
 20
7.378
 30
40.609
 70
   192
  0
VERTEX
  8
12STG26-MAIN
  5
B1D
 10
1.828
 20
14.862
 30
18.11
 70
   192
  0
VERTEX
  8
12STG26-MAIN
  5
B1E
 10
2.93
 20
14.862
 30
18.386
 70
   192
  0
VERTEX
  8
12STG26-MAIN
  5
B1F
 10
1.979
 20
16.474
 30
18.148
 70
   192
  0
VERTEX
  8
12STG26-MAIN
  5
B20
 10
3.083
 20
16.474
 30
18.424
 70
   192
  0
VERTEX
  8
12STG26-MAIN
  5
B21
 10
0.892
 20
8.432
 30
40.733
 70
   192
  0
VERTEX
  8
12STG26-MAIN
  5
B22
 10
-0.211
 20
8.432
 30
40.457
 70
   192
  0
VERTEX
  8
12STG26-MAIN
  5
B23
 10
1.578
 20
4.754
 30
18.048
 70
   192
  0
VERTEX
  8
12STG26-MAIN
  5
B24
 10
1.578
 20
12.11
 30
18.048
 70
   192
  0
VERTEX
  8
12STG26-MAIN
  5
B25
 10
2.681
 20
12.11
 30
18.324
 70
   192
  0
VERTEX
  8
12STG26-MAIN
  5
B26
 10
2.681
 20
4.754
 30
18.324
 70
   192
  0
VERTEX
  8
12STG26-MAIN
  5
B27
 10
0.0
 20
0.0
 30
0.0
 70
   128
 71
    -2
 72
     3
 73
     1
  0
VERTEX
  8
12STG26-MAIN
  5
B28
 10
0.0
 20
0.0
 30
0.0
 70
   128
 71
     4
 72
    -3
 73
     2
  0
VERTEX
  8
12STG26-MAIN
  5
B29
 10
0.0
 20
0.0
 30
0.0
 70
   128
 71
    -6
 72
    24
 73
     5
  0
VERTEX
  8
12STG26-MAIN
  5
B2A
 10
0.0
 20
0.0
 30
0.0
 70
   128
 71
     6
 72
     7
 73
   -24
  0
VERTEX
  8
12STG26-MAIN
  5
B2B
 10
0.0
 20
0.0
 30
0.0
 70
   128
 71
    -9
 72
    13
 73
     8
  0
VERTEX
  8
12STG26-MAIN
  5
B2C
 10
0.0
 20
0.0
 30
0.0
 70
   128
 71
     9
 72
    10
 73
   -13
  0
VERTEX
  8
12STG26-MAIN
  5
B2D
 10
0.0
 20
0.0
 30
0.0
 70
   128
 71
    13
 72
    12
 73
   -11
  0
VERTEX
  8
12STG26-MAIN
  5
B2E
 10
0.0
 20
0.0
 30
0.0
 70
   128
 71
    11
 72
     8
 73
   -13
  0
VERTEX
  8
12STG26-MAIN
  5
B2F
 10
0.0
 20
0.0
 30
0.0
 70
   128
 71
   -17
 72
    14
 73
    16
  0
VERTEX
  8
12STG26-MAIN
  5
B30
 10
0.0
 20
0.0
 30
0.0
 70
   128
 71
    17
 72
    15
 73
   -14
  0
VERTEX
  8
12STG26-MAIN
  5
B31
 10
0.0
 20
0.0
 30
0.0
 70
   128
 71
    16
 72
    25
 73
   -23
  0
VERTEX
  8
12STG26-MAIN
  5
B32
 10
0.0
 20
0.0
 30
0.0
 70
   128
 71
    23
 72
    17
 73
   -16
  0
VERTEX
  8
12STG26-MAIN
  5
B33
 10
0.0
 20
0.0
 30
0.0
 70
   128
 71
   -20
 72
    19
 73
    18
  0
VERTEX
  8
12STG26-MAIN
  5
B34
 10
0.0
 20
0.0
 30
0.0
 70
   128
 71
    20
 72
    21
 73
   -19
  0
VERTEX
  8
12STG26-MAIN
  5
B35
 10
0.0
 20
0.0
 30
0.0
 70
   128
 71
   -22
 72
    21
 73
    20
  0
VERTEX
  8
12STG26-MAIN
  5
B36
 10
0.0
 20
0.0
 30
0.0
 70
   128
 71
    22
 72
    71
 73
   -21
  0
VERTEX
  8
12STG26-MAIN
  5
B37
 10
0.0
 20
0.0
 30
0.0
 70
   128
 71
   -23
 72
    24
 73
     7
  0
VERTEX
  8
12STG26-MAIN
  5
B38
 10
0.0
 20
0.0
 30
0.0
 70
   128
 71
    23
 72
    25
 73
   -24
  0
VERTEX
  8
12STG26-MAIN
  5
B39
 10
0.0
 20
0.0
 30
0.0
 70
   128
 71
    -9
 72
    19
 73
    10
  0
VERTEX
  8
12STG26-MAIN
  5
B3A
 10
0.0
 20
0.0
 30
0.0
 70
   128
 71
     9
 72
    18
 73
   -19
  0
VERTEX
  8
12STG26-MAIN
  5
B3B
 10
0.0
 20
0.0
 30
0.0
 70
   128
 71
   -27
 72
    12
 73
    26
  0
VERTEX
  8
12STG26-MAIN
  5
B3C
 10
0.0
 20
0.0
 30
0.0
 70
   128
 71
    27
 72
    11
 73
   -12
  0
VERTEX
  8
12STG26-MAIN
  5
B3D
 10
0.0
 20
0.0
 30
0.0
 70
   128
 71
    -6
 72
    29
 73
    28
  0
VERTEX
  8
12STG26-MAIN
  5
B3E
 10
0.0
 20
0.0
 30
0.0
 70
   128
 71
     6
 72
     5
 73
   -29
  0
VERTEX
  8
12STG26-MAIN
  5
B3F
 10
0.0
 20
0.0
 30
0.0
 70
   128
 71
   -30
 72
    32
 73
    34
  0
VERTEX
  8
12STG26-MAIN
  5
B40
 10
0.0
 20
0.0
 30
0.0
 70
   128
 71
    31
 72
   -32
 73
    30
  0
VERTEX
  8
12STG26-MAIN
  5
B41
 10
0.0
 20
0.0
 30
0.0
 70
   128
 71
    35
 72
   -34
 73
    33
  0
VERTEX
  8
12STG26-MAIN
  5
B42
 10
0.0
 20
0.0
 30
0.0
 70
   128
 71
    32
 72
   -33
 73
    34
  0
VERTEX
  8
12STG26-MAIN
  5
B43
 10
0.0
 20
0.0
 30
0.0
 70
   128
 71
   -37
 72
    33
 73
    39
  0
VERTEX
  8
12STG26-MAIN
  5
B44
 10
0.0
 20
0.0
 30
0.0
 70
   128
 71
    35
 72
   -33
 73
    37
  0
VERTEX
  8
12STG26-MAIN
  5
B45
 10
0.0
 20
0.0
 30
0.0
 70
   128
 71
   -37
 72
    38
 73
    36
  0
VERTEX
  8
12STG26-MAIN
  5
B46
 10
0.0
 20
0.0
 30
0.0
 70
   128
 71
    39
 72
   -38
 73
    37
  0
VERTEX
  8
12STG26-MAIN
  5
B47
 10
0.0
 20
0.0
 30
0.0
 70
   128
 71
   -41
 72
    38
 73
    40
  0
VERTEX
  8
12STG26-MAIN
  5
B48
 10
0.0
 20
0.0
 30
0.0
 70
   128
 71
    36
 72
   -38
 73
    41
  0
VERTEX
  8
12STG26-MAIN
  5
B49
 10
0.0
 20
0.0
 30
0.0
 70
   128
 71
   -45
 72
    61
 73
    43
  0
VERTEX
  8
12STG26-MAIN
  5
B4A
 10
0.0
 20
0.0
 30
0.0
 70
   128
 71
    42
 72
   -61
 73
    45
  0
VERTEX
  8
12STG26-MAIN
  5
B4B
 10
0.0
 20
0.0
 30
0.0
 70
   128
 71
   -44
 72
    43
 73
    46
  0
VERTEX
  8
12STG26-MAIN
  5
B4C
 10
0.0
 20
0.0
 30
0.0
 70
   128
 71
    45
 72
   -43
 73
    44
  0
VERTEX
  8
12STG26-MAIN
  5
B4D
 10
0.0
 20
0.0
 30
0.0
 70
   128
 71
   -44
 72
    49
 73
    50
  0
VERTEX
  8
12STG26-MAIN
  5
B4E
 10
0.0
 20
0.0
 30
0.0
 70
   128
 71
    46
 72
   -49
 73
    44
  0
VERTEX
  8
12STG26-MAIN
  5
B4F
 10
0.0
 20
0.0
 30
0.0
 70
   128
 71
   -48
 72
    49
 73
    47
  0
VERTEX
  8
12STG26-MAIN
  5
B50
 10
0.0
 20
0.0
 30
0.0
 70
   128
 71
    50
 72
   -49
 73
    48
  0
VERTEX
  8
12STG26-MAIN
  5
B51
 10
0.0
 20
0.0
 30
0.0
 70
   128
 71
    52
 72
   -48
 73
    53
  0
VERTEX
  8
12STG26-MAIN
  5
B52
 10
0.0
 20
0.0
 30
0.0
 70
   128
 71
    47
 72
   -53
 73
    48
  0
VERTEX
  8
12STG26-MAIN
  5
B53
 10
0.0
 20
0.0
 30
0.0
 70
   128
 71
   -52
 72
    54
 73
    51
  0
VERTEX
  8
12STG26-MAIN
  5
B54
 10
0.0
 20
0.0
 30
0.0
 70
   128
 71
    53
 72
   -54
 73
    52
  0
VERTEX
  8
12STG26-MAIN
  5
B55
 10
0.0
 20
0.0
 30
0.0
 70
   128
 71
    56
 72
    69
 73
   -55
  0
VERTEX
  8
12STG26-MAIN
  5
B56
 10
0.0
 20
0.0
 30
0.0
 70
   128
 71
    55
 72
    57
 73
   -56
  0
VERTEX
  8
12STG26-MAIN
  5
B57
 10
0.0
 20
0.0
 30
0.0
 70
   128
 71
   -59
 72
    57
 73
    58
  0
VERTEX
  8
12STG26-MAIN
  5
B58
 10
0.0
 20
0.0
 30
0.0
 70
   128
 71
    56
 72
   -57
 73
    59
  0
VERTEX
  8
12STG26-MAIN
  5
B59
 10
0.0
 20
0.0
 30
0.0
 70
   128
 71
   -61
 72
    60
 73
    63
  0
VERTEX
  8
12STG26-MAIN
  5
B5A
 10
0.0
 20
0.0
 30
0.0
 70
   128
 71
    61
 72
    42
 73
   -60
  0
VERTEX
  8
12STG26-MAIN
  5
B5B
 10
0.0
 20
0.0
 30
0.0
 70
   128
 71
   -63
 72
    64
 73
    62
  0
VERTEX
  8
12STG26-MAIN
  5
B5C
 10
0.0
 20
0.0
 30
0.0
 70
   128
 71
    63
 72
    60
 73
   -64
  0
VERTEX
  8
12STG26-MAIN
  5
B5D
 10
0.0
 20
0.0
 30
0.0
 70
   128
 71
    64
 72
    66
 73
   -65
  0
VERTEX
  8
12STG26-MAIN
  5
B5E
 10
0.0
 20
0.0
 30
0.0
 70
   128
 71
    65
 72
    62
 73
   -64
  0
VERTEX
  8
12STG26-MAIN
  5
B5F
 10
0.0
 20
0.0
 30
0.0
 70
   128
 71
   -65
 72
    82
 73
    81
  0
VERTEX
  8
12STG26-MAIN
  5
B60
 10
0.0
 20
0.0
 30
0.0
 70
   128
 71
    65
 72
    66
 73
   -82
  0
VERTEX
  8
12STG26-MAIN
  5
B61
 10
0.0
 20
0.0
 30
0.0
 70
   128
 71
   -55
 72
    68
 73
    67
  0
VERTEX
  8
12STG26-MAIN
  5
B62
 10
0.0
 20
0.0
 30
0.0
 70
   128
 71
    55
 72
    69
 73
   -68
  0
VERTEX
  8
12STG26-MAIN
  5
B63
 10
0.0
 20
0.0
 30
0.0
 70
   128
 71
   -74
 72
    22
 73
    70
  0
VERTEX
  8
12STG26-MAIN
  5
B64
 10
0.0
 20
0.0
 30
0.0
 70
   128
 71
    71
 72
   -22
 73
    74
  0
VERTEX
  8
12STG26-MAIN
  5
B65
 10
0.0
 20
0.0
 30
0.0
 70
   128
 71
   -73
 72
    70
 73
    72
  0
VERTEX
  8
12STG26-MAIN
  5
B66
 10
0.0
 20
0.0
 30
0.0
 70
   128
 71
    74
 72
   -70
 73
    73
  0
VERTEX
  8
12STG26-MAIN
  5
B67
 10
0.0
 20
0.0
 30
0.0
 70
   128
 71
    75
 72
   -73
 73
    76
  0
VERTEX
  8
12STG26-MAIN
  5
B68
 10
0.0
 20
0.0
 30
0.0
 70
   128
 71
    72
 72
   -76
 73
    73
  0
VERTEX
  8
12STG26-MAIN
  5
B69
 10
0.0
 20
0.0
 30
0.0
 70
   128
 71
   -82
 72
    76
 73
    81
  0
VERTEX
  8
12STG26-MAIN
  5
B6A
 10
0.0
 20
0.0
 30
0.0
 70
   128
 71
    75
 72
   -76
 73
    82
  0
VERTEX
  8
12STG26-MAIN
  5
B6B
 10
0.0
 20
0.0
 30
0.0
 70
   128
 71
    56
 72
    69
 73
   -55
  0
VERTEX
  8
12STG26-MAIN
  5
B6C
 10
0.0
 20
0.0
 30
0.0
 70
   128
 71
    55
 72
    57
 73
   -56
  0
VERTEX
  8
12STG26-MAIN
  5
B6D
 10
0.0
 20
0.0
 30
0.0
 70
   128
 71
   -78
 72
    79
 73
    77
  0
VERTEX
  8
12STG26-MAIN
  5
B6E
 10
0.0
 20
0.0
 30
0.0
 70
   128
 71
    78
 72
    80
 73
   -79
  0
VERTEX
  8
12STG26-MAIN
  5
B6F
 10
0.0
 20
0.0
 30
0.0
 70
   128
 71
    85
 72
    84
 73
   -83
  0
VERTEX
  8
12STG26-MAIN
  5
B70
 10
0.0
 20
0.0
 30
0.0
 70
   128
 71
    83
 72
    86
 73
   -85
  0
SEQEND
  8
12STG26-MAIN
  5
B71
  0
POLYLINE
  8
12STG26-MAIN
  5
B8B
 66
     1
 10
0.0
 20
0.0
 30
0.0
 70
    64
 71
   274
 72
   270
1001
AVE_ENTITY_MATERIAL
1002
{
1000

1002
{
1071
        0
1070
     0
1070
     0
1002
{
1070
     0
1070
     0
1070
     0
1040
0.0
1002
}
1070
     0
1070
     0
1002
{
1002
}
1002
}
1002
{
1002
}
1002
{
1002
}
1011
0.0
1021
0.0
1031
0.0
1011
1.0
1021
0.0
1031
0.0
1011
0.0
1021
1.0
1031
0.0
1011
0.0
1021
0.0
1031
1.0
1002
}
1001
AVE_FINISH
1002
{
1070
     0
1005
66C
1002
}
  0
VERTEX
  8
12STG26-MAIN
  5
B8C
 10
1.128
 20
3.92
 30
38.64
 70
   192
  0
VERTEX
  8
12STG26-MAIN
  5
B8D
 10
1.247
 20
4.154
 30
36.872
 70
   192
  0
VERTEX
  8
12STG26-MAIN
  5
B8E
 10
0.356
 20
-0.065
 30
39.031
 70
   192
  0
VERTEX
  8
12STG26-MAIN
  5
B8F
 10
0.287
 20
0.618
 30
39.076
 70
   192
  0
VERTEX
  8
12STG26-MAIN
  5
B90
 10
0.025
 20
3.92
 30
38.364
 70
   192
  0
VERTEX
  8
12STG26-MAIN
  5
B91
 10
-0.002
 20
4.56
 30
37.939
 70
   192
  0
VERTEX
  8
12STG26-MAIN
  5
B92
 10
0.149
 20
4.637
 30
35.954
 70
   192
  0
VERTEX
  8
12STG26-MAIN
  5
B93
 10
0.144
 20
4.154
 30
36.596
 70
   192
  0
VERTEX
  8
12STG26-MAIN
  5
B94
 10
1.306
 20
2.951
 30
37.579
 70
   192
  0
VERTEX
  8
12STG26-MAIN
  5
B95
 10
1.156
 20
3.28
 30
39.064
 70
   192
  0
VERTEX
  8
12STG26-MAIN
  5
B96
 10
1.32
 20
1.302
 30
39.396
 70
   192
  0
VERTEX
  8
12STG26-MAIN
  5
B97
 10
1.381
 20
2.056
 30
37.723
 70
   192
  0
VERTEX
  8
12STG26-MAIN
  5
B98
 10
0.053
 20
3.28
 30
38.788
 70
   192
  0
VERTEX
  8
12STG26-MAIN
  5
B99
 10
0.278
 20
2.056
 30
37.447
 70
   192
  0
VERTEX
  8
12STG26-MAIN
  5
B9A
 10
0.203
 20
2.951
 30
37.303
 70
   192
  0
VERTEX
  8
12STG26-MAIN
  5
B9B
 10
0.217
 20
1.302
 30
39.12
 70
   192
  0
VERTEX
  8
12STG26-MAIN
  5
B9C
 10
0.353
 20
1.16
 30
37.59
 70
   192
  0
VERTEX
  8
12STG26-MAIN
  5
B9D
 10
1.459
 20
-0.065
 30
39.307
 70
   192
  0
VERTEX
  8
12STG26-MAIN
  5
B9E
 10
1.39
 20
0.618
 30
39.352
 70
   192
  0
VERTEX
  8
12STG26-MAIN
  5
B9F
 10
1.456
 20
1.16
 30
37.866
 70
   192
  0
VERTEX
  8
12STG26-MAIN
  5
BA0
 10
1.609
 20
-1.238
 30
38.834
 70
   192
  0
VERTEX
  8
12STG26-MAIN
  5
BA1
 10
1.542
 20
0.444
 30
37.645
 70
   192
  0
VERTEX
  8
12STG26-MAIN
  5
BA2
 10
0.506
 20
-1.238
 30
38.558
 70
   192
  0
VERTEX
  8
12STG26-MAIN
  5
BA3
 10
0.439
 20
0.444
 30
37.369
 70
   192
  0
VERTEX
  8
12STG26-MAIN
  5
BA4
 10
1.63
 20
-0.272
 30
37.423
 70
   192
  0
VERTEX
  8
12STG26-MAIN
  5
BA5
 10
1.88
 20
-2.432
 30
36.882
 70
   192
  0
VERTEX
  8
12STG26-MAIN
  5
BA6
 10
1.792
 20
-0.848
 30
36.074
 70
   192
  0
VERTEX
  8
12STG26-MAIN
  5
BA7
 10
1.805
 20
-2.315
 30
37.684
 70
   192
  0
VERTEX
  8
12STG26-MAIN
  5
BA8
 10
1.955
 20
-2.549
 30
36.08
 70
   192
  0
VERTEX
  8
12STG26-MAIN
  5
BA9
 10
1.89
 20
-0.853
 30
34.849
 70
   192
  0
VERTEX
  8
12STG26-MAIN
  5
BAA
 10
1.94
 20
-0.719
 30
34.058
 70
   192
  0
VERTEX
  8
12STG26-MAIN
  5
BAB
 10
0.689
 20
-0.848
 30
35.798
 70
   192
  0
VERTEX
  8
12STG26-MAIN
  5
BAC
 10
0.526
 20
-0.272
 30
37.147
 70
   192
  0
VERTEX
  8
12STG26-MAIN
  5
BAD
 10
0.702
 20
-2.315
 30
37.408
 70
   192
  0
VERTEX
  8
12STG26-MAIN
  5
BAE
 10
0.838
 20
-0.719
 30
33.782
 70
   192
  0
VERTEX
  8
12STG26-MAIN
  5
BAF
 10
0.852
 20
-2.549
 30
35.804
 70
   192
  0
VERTEX
  8
12STG26-MAIN
  5
BB0
 10
0.776
 20
-2.432
 30
36.606
 70
   192
  0
VERTEX
  8
12STG26-MAIN
  5
BB1
 10
0.787
 20
-0.853
 30
34.573
 70
   192
  0
VERTEX
  8
12STG26-MAIN
  5
BB2
 10
2.214
 20
0.474
 30
29.196
 70
   192
  0
VERTEX
  8
12STG26-MAIN
  5
BB3
 10
2.312
 20
-1.428
 30
30.257
 70
   192
  0
VERTEX
  8
12STG26-MAIN
  5
BB4
 10
2.249
 20
-1.8
 30
31.505
 70
   192
  0
VERTEX
  8
12STG26-MAIN
  5
BB5
 10
2.377
 20
-1.055
 30
29.009
 70
   192
  0
VERTEX
  8
12STG26-MAIN
  5
BB6
 10
2.339
 20
1.096
 30
26.882
 70
   192
  0
VERTEX
  8
12STG26-MAIN
  5
BB7
 10
2.276
 20
0.785
 30
28.039
 70
   192
  0
VERTEX
  8
12STG26-MAIN
  5
BB8
 10
2.441
 20
-0.683
 30
27.76
 70
   192
  0
VERTEX
  8
12STG26-MAIN
  5
BB9
 10
1.111
 20
0.474
 30
28.92
 70
   192
  0
VERTEX
  8
12STG26-MAIN
  5
BBA
 10
1.21
 20
-1.428
 30
29.981
 70
   192
  0
VERTEX
  8
12STG26-MAIN
  5
BBB
 10
1.054
 20
0.166
 30
30.013
 70
   192
  0
VERTEX
  8
12STG26-MAIN
  5
BBC
 10
1.273
 20
-1.055
 30
28.733
 70
   192
  0
VERTEX
  8
12STG26-MAIN
  5
BBD
 10
2.504
 20
-0.311
 30
26.512
 70
   192
  0
VERTEX
  8
12STG26-MAIN
  5
BBE
 10
1.236
 20
1.096
 30
26.606
 70
   192
  0
VERTEX
  8
12STG26-MAIN
  5
BBF
 10
1.337
 20
-0.683
 30
27.484
 70
   192
  0
VERTEX
  8
12STG26-MAIN
  5
BC0
 10
1.174
 20
0.785
 30
27.763
 70
   192
  0
VERTEX
  8
12STG26-MAIN
  5
BC1
 10
1.298
 20
1.405
 30
25.45
 70
   192
  0
VERTEX
  8
12STG26-MAIN
  5
BC2
 10
1.402
 20
-0.311
 30
26.236
 70
   192
  0
VERTEX
  8
12STG26-MAIN
  5
BC3
 10
2.156
 20
0.166
 30
30.289
 70
   192
  0
VERTEX
  8
12STG26-MAIN
  5
BC4
 10
2.099
 20
-0.143
 30
31.382
 70
   192
  0
VERTEX
  8
12STG26-MAIN
  5
BC5
 10
2.191
 20
-2.042
 30
32.518
 70
   192
  0
VERTEX
  8
12STG26-MAIN
  5
BC6
 10
0.996
 20
-0.143
 30
31.106
 70
   192
  0
VERTEX
  8
12STG26-MAIN
  5
BC7
 10
1.146
 20
-1.8
 30
31.229
 70
   192
  0
VERTEX
  8
12STG26-MAIN
  5
BC8
 10
2.134
 20
-2.284
 30
33.529
 70
   192
  0
VERTEX
  8
12STG26-MAIN
  5
BC9
 10
2.045
 20
-2.417
 30
34.805
 70
   192
  0
VERTEX
  8
12STG26-MAIN
  5
BCA
 10
1.991
 20
-0.584
 30
33.266
 70
   192
  0
VERTEX
  8
12STG26-MAIN
  5
BCB
 10
2.041
 20
-0.451
 30
32.476
 70
   192
  0
VERTEX
  8
12STG26-MAIN
  5
BCC
 10
0.888
 20
-0.584
 30
32.99
 70
   192
  0
VERTEX
  8
12STG26-MAIN
  5
BCD
 10
0.942
 20
-2.417
 30
34.529
 70
   192
  0
VERTEX
  8
12STG26-MAIN
  5
BCE
 10
1.088
 20
-2.042
 30
32.242
 70
   192
  0
VERTEX
  8
12STG26-MAIN
  5
BCF
 10
1.031
 20
-2.284
 30
33.253
 70
   192
  0
VERTEX
  8
12STG26-MAIN
  5
BD0
 10
0.938
 20
-0.451
 30
32.2
 70
   192
  0
VERTEX
  8
12STG26-MAIN
  5
BD1
 10
2.464
 20
1.716
 30
24.569
 70
   192
  0
VERTEX
  8
12STG26-MAIN
  5
BD2
 10
2.563
 20
-0.066
 30
25.472
 70
   192
  0
VERTEX
  8
12STG26-MAIN
  5
BD3
 10
2.401
 20
1.405
 30
25.726
 70
   192
  0
VERTEX
  8
12STG26-MAIN
  5
BD4
 10
2.623
 20
0.179
 30
24.433
 70
   192
  0
VERTEX
  8
12STG26-MAIN
  5
BD5
 10
2.603
 20
2.099
 30
22.362
 70
   192
  0
VERTEX
  8
12STG26-MAIN
  5
BD6
 10
2.526
 20
2.027
 30
23.412
 70
   192
  0
VERTEX
  8
12STG26-MAIN
  5
BD7
 10
2.742
 20
0.67
 30
22.354
 70
   192
  0
VERTEX
  8
12STG26-MAIN
  5
BD8
 10
2.683
 20
0.425
 30
23.393
 70
   192
  0
VERTEX
  8
12STG26-MAIN
  5
BD9
 10
1.46
 20
-0.066
 30
25.196
 70
   192
  0
VERTEX
  8
12STG26-MAIN
  5
BDA
 10
1.52
 20
0.179
 30
24.157
 70
   192
  0
VERTEX
  8
12STG26-MAIN
  5
BDB
 10
1.361
 20
1.716
 30
24.293
 70
   192
  0
VERTEX
  8
12STG26-MAIN
  5
BDC
 10
1.579
 20
0.425
 30
23.117
 70
   192
  0
VERTEX
  8
12STG26-MAIN
  5
BDD
 10
1.423
 20
2.027
 30
23.136
 70
   192
  0
VERTEX
  8
12STG26-MAIN
  5
BDE
 10
1.639
 20
0.67
 30
22.078
 70
   192
  0
VERTEX
  8
12STG26-MAIN
  5
BDF
 10
1.5
 20
2.099
 30
22.086
 70
   192
  0
VERTEX
  8
12STG26-MAIN
  5
BE0
 10
2.905
 20
0.726
 30
20.243
 70
   192
  0
VERTEX
  8
12STG26-MAIN
  5
BE1
 10
3.083
 20
0.391
 30
18.424
 70
   192
  0
VERTEX
  8
12STG26-MAIN
  5
BE2
 10
2.994
 20
0.559
 30
19.333
 70
   192
  0
VERTEX
  8
12STG26-MAIN
  5
BE3
 10
2.844
 20
2.123
 30
19.325
 70
   192
  0
VERTEX
  8
12STG26-MAIN
  5
BE4
 10
2.93
 20
2.003
 30
18.386
 70
   192
  0
VERTEX
  8
12STG26-MAIN
  5
BE5
 10
1.891
 20
0.559
 30
19.057
 70
   192
  0
VERTEX
  8
12STG26-MAIN
  5
BE6
 10
1.802
 20
0.726
 30
19.967
 70
   192
  0
VERTEX
  8
12STG26-MAIN
  5
BE7
 10
1.979
 20
0.391
 30
18.148
 70
   192
  0
VERTEX
  8
12STG26-MAIN
  5
BE8
 10
1.828
 20
2.003
 30
18.11
 70
   192
  0
VERTEX
  8
12STG26-MAIN
  5
BE9
 10
1.741
 20
2.123
 30
19.049
 70
   192
  0
VERTEX
  8
12STG26-MAIN
  5
BEA
 10
2.758
 20
2.243
 30
20.263
 70
   192
  0
VERTEX
  8
12STG26-MAIN
  5
BEB
 10
2.681
 20
2.171
 30
21.313
 70
   192
  0
VERTEX
  8
12STG26-MAIN
  5
BEC
 10
1.654
 20
2.243
 30
19.987
 70
   192
  0
VERTEX
  8
12STG26-MAIN
  5
BED
 10
1.577
 20
2.171
 30
21.037
 70
   192
  0
VERTEX
  8
12STG26-MAIN
  5
BEE
 10
1.252
 20
12.228
 30
36.23
 70
   192
  0
VERTEX
  8
12STG26-MAIN
  5
BEF
 10
1.128
 20
12.944
 30
38.64
 70
   192
  0
VERTEX
  8
12STG26-MAIN
  5
BF0
 10
1.247
 20
12.71
 30
36.872
 70
   192
  0
VERTEX
  8
12STG26-MAIN
  5
BF1
 10
1.306
 20
13.914
 30
37.579
 70
   192
  0
VERTEX
  8
12STG26-MAIN
  5
BF2
 10
1.381
 20
14.809
 30
37.723
 70
   192
  0
VERTEX
  8
12STG26-MAIN
  5
BF3
 10
1.156
 20
13.585
 30
39.064
 70
   192
  0
VERTEX
  8
12STG26-MAIN
  5
BF4
 10
1.32
 20
15.563
 30
39.396
 70
   192
  0
VERTEX
  8
12STG26-MAIN
  5
BF5
 10
1.39
 20
16.247
 30
39.352
 70
   192
  0
VERTEX
  8
12STG26-MAIN
  5
BF6
 10
1.456
 20
15.704
 30
37.866
 70
   192
  0
VERTEX
  8
12STG26-MAIN
  5
BF7
 10
1.459
 20
16.93
 30
39.307
 70
   192
  0
VERTEX
  8
12STG26-MAIN
  5
BF8
 10
1.542
 20
16.421
 30
37.645
 70
   192
  0
VERTEX
  8
12STG26-MAIN
  5
BF9
 10
1.792
 20
17.713
 30
36.074
 70
   192
  0
VERTEX
  8
12STG26-MAIN
  5
BFA
 10
1.63
 20
17.137
 30
37.423
 70
   192
  0
VERTEX
  8
12STG26-MAIN
  5
BFB
 10
1.609
 20
18.103
 30
38.834
 70
   192
  0
VERTEX
  8
12STG26-MAIN
  5
BFC
 10
1.805
 20
19.18
 30
37.684
 70
   192
  0
VERTEX
  8
12STG26-MAIN
  5
BFD
 10
1.88
 20
19.297
 30
36.882
 70
   192
  0
VERTEX
  8
12STG26-MAIN
  5
BFE
 10
1.89
 20
17.718
 30
34.849
 70
   192
  0
VERTEX
  8
12STG26-MAIN
  5
BFF
 10
1.94
 20
17.584
 30
34.058
 70
   192
  0
VERTEX
  8
12STG26-MAIN
  5
C00
 10
1.955
 20
19.414
 30
36.08
 70
   192
  0
VERTEX
  8
12STG26-MAIN
  5
C01
 10
2.134
 20
19.148
 30
33.529
 70
   192
  0
VERTEX
  8
12STG26-MAIN
  5
C02
 10
2.045
 20
19.282
 30
34.805
 70
   192
  0
VERTEX
  8
12STG26-MAIN
  5
C03
 10
1.991
 20
17.449
 30
33.266
 70
   192
  0
VERTEX
  8
12STG26-MAIN
  5
C04
 10
2.099
 20
17.008
 30
31.382
 70
   192
  0
VERTEX
  8
12STG26-MAIN
  5
C05
 10
2.191
 20
18.907
 30
32.518
 70
   192
  0
VERTEX
  8
12STG26-MAIN
  5
C06
 10
2.041
 20
17.316
 30
32.476
 70
   192
  0
VERTEX
  8
12STG26-MAIN
  5
C07
 10
2.249
 20
18.665
 30
31.505
 70
   192
  0
VERTEX
  8
12STG26-MAIN
  5
C08
 10
2.156
 20
16.699
 30
30.289
 70
   192
  0
VERTEX
  8
12STG26-MAIN
  5
C09
 10
2.312
 20
18.293
 30
30.257
 70
   192
  0
VERTEX
  8
12STG26-MAIN
  5
C0A
 10
2.276
 20
16.08
 30
28.039
 70
   192
  0
VERTEX
  8
12STG26-MAIN
  5
C0B
 10
2.377
 20
17.92
 30
29.009
 70
   192
  0
VERTEX
  8
12STG26-MAIN
  5
C0C
 10
2.214
 20
16.391
 30
29.196
 70
   192
  0
VERTEX
  8
12STG26-MAIN
  5
C0D
 10
2.441
 20
17.548
 30
27.76
 70
   192
  0
VERTEX
  8
12STG26-MAIN
  5
C0E
 10
2.401
 20
15.46
 30
25.726
 70
   192
  0
VERTEX
  8
12STG26-MAIN
  5
C0F
 10
2.339
 20
15.769
 30
26.882
 70
   192
  0
VERTEX
  8
12STG26-MAIN
  5
C10
 10
2.504
 20
17.176
 30
26.512
 70
   192
  0
VERTEX
  8
12STG26-MAIN
  5
C11
 10
2.623
 20
16.686
 30
24.433
 70
   192
  0
VERTEX
  8
12STG26-MAIN
  5
C12
 10
2.563
 20
16.931
 30
25.472
 70
   192
  0
VERTEX
  8
12STG26-MAIN
  5
C13
 10
2.464
 20
15.149
 30
24.569
 70
   192
  0
VERTEX
  8
12STG26-MAIN
  5
C14
 10
2.603
 20
14.766
 30
22.362
 70
   192
  0
VERTEX
  8
12STG26-MAIN
  5
C15
 10
2.683
 20
16.44
 30
23.393
 70
   192
  0
VERTEX
  8
12STG26-MAIN
  5
C16
 10
2.526
 20
14.838
 30
23.412
 70
   192
  0
VERTEX
  8
12STG26-MAIN
  5
C17
 10
2.681
 20
14.694
 30
21.313
 70
   192
  0
VERTEX
  8
12STG26-MAIN
  5
C18
 10
2.742
 20
16.195
 30
22.354
 70
   192
  0
VERTEX
  8
12STG26-MAIN
  5
C19
 10
2.905
 20
16.139
 30
20.243
 70
   192
  0
VERTEX
  8
12STG26-MAIN
  5
C1A
 10
2.758
 20
14.622
 30
20.263
 70
   192
  0
VERTEX
  8
12STG26-MAIN
  5
C1B
 10
2.844
 20
14.742
 30
19.325
 70
   192
  0
VERTEX
  8
12STG26-MAIN
  5
C1C
 10
3.083
 20
16.474
 30
18.424
 70
   192
  0
VERTEX
  8
12STG26-MAIN
  5
C1D
 10
2.994
 20
16.306
 30
19.333
 70
   192
  0
VERTEX
  8
12STG26-MAIN
  5
C1E
 10
2.93
 20
14.862
 30
18.386
 70
   192
  0
VERTEX
  8
12STG26-MAIN
  5
C1F
 10
0.025
 20
12.944
 30
38.364
 70
   192
  0
VERTEX
  8
12STG26-MAIN
  5
C20
 10
0.203
 20
13.914
 30
37.303
 70
   192
  0
VERTEX
  8
12STG26-MAIN
  5
C21
 10
0.144
 20
12.71
 30
36.596
 70
   192
  0
VERTEX
  8
12STG26-MAIN
  5
C22
 10
0.053
 20
13.585
 30
38.788
 70
   192
  0
VERTEX
  8
12STG26-MAIN
  5
C23
 10
0.278
 20
14.809
 30
37.447
 70
   192
  0
VERTEX
  8
12STG26-MAIN
  5
C24
 10
0.287
 20
16.247
 30
39.076
 70
   192
  0
VERTEX
  8
12STG26-MAIN
  5
C25
 10
0.217
 20
15.563
 30
39.12
 70
   192
  0
VERTEX
  8
12STG26-MAIN
  5
C26
 10
0.353
 20
15.704
 30
37.59
 70
   192
  0
VERTEX
  8
12STG26-MAIN
  5
C27
 10
0.356
 20
16.93
 30
39.031
 70
   192
  0
VERTEX
  8
12STG26-MAIN
  5
C28
 10
0.506
 20
18.103
 30
38.558
 70
   192
  0
VERTEX
  8
12STG26-MAIN
  5
C29
 10
0.439
 20
16.421
 30
37.369
 70
   192
  0
VERTEX
  8
12STG26-MAIN
  5
C2A
 10
0.702
 20
19.18
 30
37.408
 70
   192
  0
VERTEX
  8
12STG26-MAIN
  5
C2B
 10
0.526
 20
17.137
 30
37.147
 70
   192
  0
VERTEX
  8
12STG26-MAIN
  5
C2C
 10
0.689
 20
17.713
 30
35.798
 70
   192
  0
VERTEX
  8
12STG26-MAIN
  5
C2D
 10
0.776
 20
19.297
 30
36.606
 70
   192
  0
VERTEX
  8
12STG26-MAIN
  5
C2E
 10
0.838
 20
17.584
 30
33.782
 70
   192
  0
VERTEX
  8
12STG26-MAIN
  5
C2F
 10
0.787
 20
17.718
 30
34.573
 70
   192
  0
VERTEX
  8
12STG26-MAIN
  5
C30
 10
0.942
 20
19.282
 30
34.529
 70
   192
  0
VERTEX
  8
12STG26-MAIN
  5
C31
 10
0.852
 20
19.414
 30
35.804
 70
   192
  0
VERTEX
  8
12STG26-MAIN
  5
C32
 10
1.031
 20
19.148
 30
33.253
 70
   192
  0
VERTEX
  8
12STG26-MAIN
  5
C33
 10
0.888
 20
17.449
 30
32.99
 70
   192
  0
VERTEX
  8
12STG26-MAIN
  5
C34
 10
1.088
 20
18.907
 30
32.242
 70
   192
  0
VERTEX
  8
12STG26-MAIN
  5
C35
 10
0.938
 20
17.316
 30
32.2
 70
   192
  0
VERTEX
  8
12STG26-MAIN
  5
C36
 10
1.146
 20
18.665
 30
31.229
 70
   192
  0
VERTEX
  8
12STG26-MAIN
  5
C37
 10
0.996
 20
17.008
 30
31.106
 70
   192
  0
VERTEX
  8
12STG26-MAIN
  5
C38
 10
1.054
 20
16.699
 30
30.013
 70
   192
  0
VERTEX
  8
12STG26-MAIN
  5
C39
 10
1.273
 20
17.92
 30
28.733
 70
   192
  0
VERTEX
  8
12STG26-MAIN
  5
C3A
 10
1.21
 20
18.293
 30
29.981
 70
   192
  0
VERTEX
  8
12STG26-MAIN
  5
C3B
 10
1.111
 20
16.391
 30
28.92
 70
   192
  0
VERTEX
  8
12STG26-MAIN
  5
C3C
 10
1.337
 20
17.548
 30
27.484
 70
   192
  0
VERTEX
  8
12STG26-MAIN
  5
C3D
 10
1.174
 20
16.08
 30
27.763
 70
   192
  0
VERTEX
  8
12STG26-MAIN
  5
C3E
 10
1.236
 20
15.769
 30
26.606
 70
   192
  0
VERTEX
  8
12STG26-MAIN
  5
C3F
 10
1.402
 20
17.176
 30
26.236
 70
   192
  0
VERTEX
  8
12STG26-MAIN
  5
C40
 10
1.361
 20
15.149
 30
24.293
 70
   192
  0
VERTEX
  8
12STG26-MAIN
  5
C41
 10
1.46
 20
16.931
 30
25.196
 70
   192
  0
VERTEX
  8
12STG26-MAIN
  5
C42
 10
1.298
 20
15.46
 30
25.45
 70
   192
  0
VERTEX
  8
12STG26-MAIN
  5
C43
 10
1.52
 20
16.686
 30
24.157
 70
   192
  0
VERTEX
  8
12STG26-MAIN
  5
C44
 10
1.423
 20
14.838
 30
23.136
 70
   192
  0
VERTEX
  8
12STG26-MAIN
  5
C45
 10
1.579
 20
16.44
 30
23.117
 70
   192
  0
VERTEX
  8
12STG26-MAIN
  5
C46
 10
1.639
 20
16.195
 30
22.078
 70
   192
  0
VERTEX
  8
12STG26-MAIN
  5
C47
 10
1.5
 20
14.766
 30
22.086
 70
   192
  0
VERTEX
  8
12STG26-MAIN
  5
C48
 10
1.654
 20
14.622
 30
19.987
 70
   192
  0
VERTEX
  8
12STG26-MAIN
  5
C49
 10
1.802
 20
16.139
 30
19.967
 70
   192
  0
VERTEX
  8
12STG26-MAIN
  5
C4A
 10
1.577
 20
14.694
 30
21.037
 70
   192
  0
VERTEX
  8
12STG26-MAIN
  5
C4B
 10
1.979
 20
16.474
 30
18.148
 70
   192
  0
VERTEX
  8
12STG26-MAIN
  5
C4C
 10
1.891
 20
16.306
 30
19.057
 70
   192
  0
VERTEX
  8
12STG26-MAIN
  5
C4D
 10
1.741
 20
14.742
 30
19.049
 70
   192
  0
VERTEX
  8
12STG26-MAIN
  5
C4E
 10
1.828
 20
14.862
 30
18.11
 70
   192
  0
VERTEX
  8
12STG26-MAIN
  5
C4F
 10
1.458
 20
5.638
 30
19.561
 70
   192
  0
VERTEX
  8
12STG26-MAIN
  5
C50
 10
1.458
 20
11.227
 30
19.561
 70
   192
  0
VERTEX
  8
12STG26-MAIN
  5
C51
 10
1.578
 20
12.11
 30
18.048
 70
   192
  0
VERTEX
  8
12STG26-MAIN
  5
C52
 10
1.578
 20
4.754
 30
18.048
 70
   192
  0
VERTEX
  8
12STG26-MAIN
  5
C53
 10
1.373
 20
10.891
 30
20.623
 70
   192
  0
VERTEX
  8
12STG26-MAIN
  5
C54
 10
1.254
 20
10.829
 30
22.103
 70
   192
  0
VERTEX
  8
12STG26-MAIN
  5
C55
 10
1.373
 20
5.974
 30
20.623
 70
   192
  0
VERTEX
  8
12STG26-MAIN
  5
C56
 10
1.136
 20
10.765
 30
23.582
 70
   192
  0
VERTEX
  8
12STG26-MAIN
  5
C57
 10
1.254
 20
6.036
 30
22.103
 70
   192
  0
VERTEX
  8
12STG26-MAIN
  5
C58
 10
1.031
 20
11.015
 30
24.905
 70
   192
  0
VERTEX
  8
12STG26-MAIN
  5
C59
 10
1.136
 20
6.1
 30
23.582
 70
   192
  0
VERTEX
  8
12STG26-MAIN
  5
C5A
 10
1.031
 20
5.85
 30
24.905
 70
   192
  0
VERTEX
  8
12STG26-MAIN
  5
C5B
 10
0.925
 20
5.6
 30
26.226
 70
   192
  0
VERTEX
  8
12STG26-MAIN
  5
C5C
 10
0.925
 20
11.264
 30
26.226
 70
   192
  0
VERTEX
  8
12STG26-MAIN
  5
C5D
 10
0.684
 20
12.014
 30
29.255
 70
   192
  0
VERTEX
  8
12STG26-MAIN
  5
C5E
 10
0.769
 20
11.801
 30
28.186
 70
   192
  0
VERTEX
  8
12STG26-MAIN
  5
C5F
 10
0.769
 20
5.064
 30
28.186
 70
   192
  0
VERTEX
  8
12STG26-MAIN
  5
C60
 10
0.598
 20
4.637
 30
30.324
 70
   192
  0
VERTEX
  8
12STG26-MAIN
  5
C61
 10
0.684
 20
4.85
 30
29.255
 70
   192
  0
VERTEX
  8
12STG26-MAIN
  5
C62
 10
0.484
 20
4.91
 30
31.752
 70
   192
  0
VERTEX
  8
12STG26-MAIN
  5
C63
 10
0.598
 20
12.228
 30
30.324
 70
   192
  0
VERTEX
  8
12STG26-MAIN
  5
C64
 10
0.408
 20
5.531
 30
32.711
 70
   192
  0
VERTEX
  8
12STG26-MAIN
  5
C65
 10
0.408
 20
11.334
 30
32.711
 70
   192
  0
VERTEX
  8
12STG26-MAIN
  5
C66
 10
0.484
 20
11.954
 30
31.752
 70
   192
  0
VERTEX
  8
12STG26-MAIN
  5
C67
 10
0.319
 20
6.722
 30
33.826
 70
   192
  0
VERTEX
  8
12STG26-MAIN
  5
C68
 10
0.277
 20
11.185
 30
34.343
 70
   192
  0
VERTEX
  8
12STG26-MAIN
  5
C69
 10
0.319
 20
10.142
 30
33.826
 70
   192
  0
VERTEX
  8
12STG26-MAIN
  5
C6A
 10
0.277
 20
5.68
 30
34.343
 70
   192
  0
VERTEX
  8
12STG26-MAIN
  5
C6B
 10
0.073
 20
12.266
 30
36.947
 70
   192
  0
VERTEX
  8
12STG26-MAIN
  5
C6C
 10
0.149
 20
12.228
 30
35.954
 70
   192
  0
VERTEX
  8
12STG26-MAIN
  5
C6D
 10
-0.002
 20
12.305
 30
37.939
 70
   192
  0
VERTEX
  8
12STG26-MAIN
  5
C6E
 10
0.073
 20
4.598
 30
36.947
 70
   192
  0
VERTEX
  8
12STG26-MAIN
  5
C6F
 10
-0.172
 20
10.469
 30
39.958
 70
   192
  0
VERTEX
  8
12STG26-MAIN
  5
C70
 10
-0.124
 20
5.638
 30
39.367
 70
   192
  0
VERTEX
  8
12STG26-MAIN
  5
C71
 10
-0.124
 20
11.227
 30
39.367
 70
   192
  0
VERTEX
  8
12STG26-MAIN
  5
C72
 10
-0.202
 20
7.378
 30
40.333
 70
   192
  0
VERTEX
  8
12STG26-MAIN
  5
C73
 10
-0.172
 20
6.396
 30
39.958
 70
   192
  0
VERTEX
  8
12STG26-MAIN
  5
C74
 10
-0.202
 20
9.487
 30
40.333
 70
   192
  0
VERTEX
  8
12STG26-MAIN
  5
C75
 10
-0.211
 20
8.432
 30
40.457
 70
   192
  0
VERTEX
  8
12STG26-MAIN
  5
C76
 10
2.681
 20
12.11
 30
18.324
 70
   192
  0
VERTEX
  8
12STG26-MAIN
  5
C77
 10
2.681
 20
4.754
 30
18.324
 70
   192
  0
VERTEX
  8
12STG26-MAIN
  5
C78
 10
2.476
 20
10.891
 30
20.899
 70
   192
  0
VERTEX
  8
12STG26-MAIN
  5
C79
 10
2.561
 20
11.227
 30
19.837
 70
   192
  0
VERTEX
  8
12STG26-MAIN
  5
C7A
 10
2.561
 20
5.638
 30
19.837
 70
   192
  0
VERTEX
  8
12STG26-MAIN
  5
C7B
 10
2.358
 20
6.036
 30
22.379
 70
   192
  0
VERTEX
  8
12STG26-MAIN
  5
C7C
 10
2.476
 20
5.974
 30
20.899
 70
   192
  0
VERTEX
  8
12STG26-MAIN
  5
C7D
 10
2.239
 20
10.765
 30
23.858
 70
   192
  0
VERTEX
  8
12STG26-MAIN
  5
C7E
 10
2.358
 20
10.829
 30
22.379
 70
   192
  0
VERTEX
  8
12STG26-MAIN
  5
C7F
 10
2.134
 20
5.85
 30
25.181
 70
   192
  0
VERTEX
  8
12STG26-MAIN
  5
C80
 10
2.239
 20
6.1
 30
23.858
 70
   192
  0
VERTEX
  8
12STG26-MAIN
  5
C81
 10
2.134
 20
11.015
 30
25.181
 70
   192
  0
VERTEX
  8
12STG26-MAIN
  5
C82
 10
1.872
 20
11.801
 30
28.462
 70
   192
  0
VERTEX
  8
12STG26-MAIN
  5
C83
 10
2.028
 20
11.264
 30
26.502
 70
   192
  0
VERTEX
  8
12STG26-MAIN
  5
C84
 10
2.028
 20
5.6
 30
26.502
 70
   192
  0
VERTEX
  8
12STG26-MAIN
  5
C85
 10
1.787
 20
12.014
 30
29.531
 70
   192
  0
VERTEX
  8
12STG26-MAIN
  5
C86
 10
1.872
 20
5.064
 30
28.462
 70
   192
  0
VERTEX
  8
12STG26-MAIN
  5
C87
 10
1.787
 20
4.85
 30
29.531
 70
   192
  0
VERTEX
  8
12STG26-MAIN
  5
C88
 10
1.702
 20
4.637
 30
30.6
 70
   192
  0
VERTEX
  8
12STG26-MAIN
  5
C89
 10
1.702
 20
12.228
 30
30.6
 70
   192
  0
VERTEX
  8
12STG26-MAIN
  5
C8A
 10
1.511
 20
5.531
 30
32.987
 70
   192
  0
VERTEX
  8
12STG26-MAIN
  5
C8B
 10
1.588
 20
11.954
 30
32.028
 70
   192
  0
VERTEX
  8
12STG26-MAIN
  5
C8C
 10
1.588
 20
4.91
 30
32.028
 70
   192
  0
VERTEX
  8
12STG26-MAIN
  5
C8D
 10
1.422
 20
6.722
 30
34.102
 70
   192
  0
VERTEX
  8
12STG26-MAIN
  5
C8E
 10
1.511
 20
11.334
 30
32.987
 70
   192
  0
VERTEX
  8
12STG26-MAIN
  5
C8F
 10
1.38
 20
11.185
 30
34.619
 70
   192
  0
VERTEX
  8
12STG26-MAIN
  5
C90
 10
1.422
 20
10.142
 30
34.102
 70
   192
  0
VERTEX
  8
12STG26-MAIN
  5
C91
 10
1.252
 20
4.637
 30
36.23
 70
   192
  0
VERTEX
  8
12STG26-MAIN
  5
C92
 10
1.38
 20
5.68
 30
34.619
 70
   192
  0
VERTEX
  8
12STG26-MAIN
  5
C93
 10
1.176
 20
4.598
 30
37.223
 70
   192
  0
VERTEX
  8
12STG26-MAIN
  5
C94
 10
1.176
 20
12.266
 30
37.223
 70
   192
  0
VERTEX
  8
12STG26-MAIN
  5
C95
 10
1.102
 20
4.56
 30
38.215
 70
   192
  0
VERTEX
  8
12STG26-MAIN
  5
C96
 10
0.979
 20
5.638
 30
39.643
 70
   192
  0
VERTEX
  8
12STG26-MAIN
  5
C97
 10
1.102
 20
12.305
 30
38.215
 70
   192
  0
VERTEX
  8
12STG26-MAIN
  5
C98
 10
0.979
 20
11.227
 30
39.643
 70
   192
  0
VERTEX
  8
12STG26-MAIN
  5
C99
 10
0.932
 20
6.396
 30
40.234
 70
   192
  0
VERTEX
  8
12STG26-MAIN
  5
C9A
 10
0.932
 20
10.469
 30
40.234
 70
   192
  0
VERTEX
  8
12STG26-MAIN
  5
C9B
 10
0.902
 20
9.487
 30
40.609
 70
   192
  0
VERTEX
  8
12STG26-MAIN
  5
C9C
 10
0.902
 20
7.378
 30
40.609
 70
   192
  0
VERTEX
  8
12STG26-MAIN
  5
C9D
 10
0.892
 20
8.432
 30
40.733
 70
   192
  0
VERTEX
  8
12STG26-MAIN
  5
C9E
 10
0.0
 20
0.0
 30
0.0
 70
   128
 71
    -2
 72
   266
 73
    -1
  0
VERTEX
  8
12STG26-MAIN
  5
C9F
 10
0.0
 20
0.0
 30
0.0
 70
   128
 71
     2
 72
   262
 73
  -266
  0
VERTEX
  8
12STG26-MAIN
  5
CA0
 10
0.0
 20
0.0
 30
0.0
 70
   128
 71
   -24
 72
     4
 73
    -3
  0
VERTEX
  8
12STG26-MAIN
  5
CA1
 10
0.0
 20
0.0
 30
0.0
 70
   128
 71
    24
 72
   -17
 73
    -4
  0
VERTEX
  8
12STG26-MAIN
  5
CA2
 10
0.0
 20
0.0
 30
0.0
 70
   128
 71
    -8
 72
     6
 73
    -5
  0
VERTEX
  8
12STG26-MAIN
  5
CA3
 10
0.0
 20
0.0
 30
0.0
 70
   128
 71
     8
 72
     7
 73
    -6
  0
VERTEX
  8
12STG26-MAIN
  5
CA4
 10
0.0
 20
0.0
 30
0.0
 70
   128
 71
   -15
 72
     5
 73
   -13
  0
VERTEX
  8
12STG26-MAIN
  5
CA5
 10
0.0
 20
0.0
 30
0.0
 70
   128
 71
    15
 72
    -8
 73
    -5
  0
VERTEX
  8
12STG26-MAIN
  5
CA6
 10
0.0
 20
0.0
 30
0.0
 70
   128
 71
    -9
 72
     1
 73
   -10
  0
VERTEX
  8
12STG26-MAIN
  5
CA7
 10
0.0
 20
0.0
 30
0.0
 70
   128
 71
     9
 72
    -2
 73
    -1
  0
VERTEX
  8
12STG26-MAIN
  5
CA8
 10
0.0
 20
0.0
 30
0.0
 70
   128
 71
   -12
 72
    10
 73
   -11
  0
VERTEX
  8
12STG26-MAIN
  5
CA9
 10
0.0
 20
0.0
 30
0.0
 70
   128
 71
    12
 72
    -9
 73
   -10
  0
VERTEX
  8
12STG26-MAIN
  5
CAA
 10
0.0
 20
0.0
 30
0.0
 70
   128
 71
   -20
 72
    11
 73
   -19
  0
VERTEX
  8
12STG26-MAIN
  5
CAB
 10
0.0
 20
0.0
 30
0.0
 70
   128
 71
    20
 72
   -12
 73
   -11
  0
VERTEX
  8
12STG26-MAIN
  5
CAC
 10
0.0
 20
0.0
 30
0.0
 70
   128
 71
   -14
 72
    13
 73
   -16
  0
VERTEX
  8
12STG26-MAIN
  5
CAD
 10
0.0
 20
0.0
 30
0.0
 70
   128
 71
    14
 72
   -15
 73
   -13
  0
VERTEX
  8
12STG26-MAIN
  5
CAE
 10
0.0
 20
0.0
 30
0.0
 70
   128
 71
   -17
 72
    16
 73
    -4
  0
VERTEX
  8
12STG26-MAIN
  5
CAF
 10
0.0
 20
0.0
 30
0.0
 70
   128
 71
    17
 72
   -14
 73
   -16
  0
VERTEX
  8
12STG26-MAIN
  5
CB0
 10
0.0
 20
0.0
 30
0.0
 70
   128
 71
   -22
 72
    19
 73
   -18
  0
VERTEX
  8
12STG26-MAIN
  5
CB1
 10
0.0
 20
0.0
 30
0.0
 70
   128
 71
    22
 72
   -20
 73
   -19
  0
VERTEX
  8
12STG26-MAIN
  5
CB2
 10
0.0
 20
0.0
 30
0.0
 70
   128
 71
   -25
 72
    18
 73
   -21
  0
VERTEX
  8
12STG26-MAIN
  5
CB3
 10
0.0
 20
0.0
 30
0.0
 70
   128
 71
    25
 72
   -22
 73
   -18
  0
VERTEX
  8
12STG26-MAIN
  5
CB4
 10
0.0
 20
0.0
 30
0.0
 70
   128
 71
   -33
 72
     3
 73
   -23
  0
VERTEX
  8
12STG26-MAIN
  5
CB5
 10
0.0
 20
0.0
 30
0.0
 70
   128
 71
    33
 72
   -24
 73
    -3
  0
VERTEX
  8
12STG26-MAIN
  5
CB6
 10
0.0
 20
0.0
 30
0.0
 70
   128
 71
   -25
 72
   -28
 73
    27
  0
VERTEX
  8
12STG26-MAIN
  5
CB7
 10
0.0
 20
0.0
 30
0.0
 70
   128
 71
   -25
 72
    21
 73
   -28
  0
VERTEX
  8
12STG26-MAIN
  5
CB8
 10
0.0
 20
0.0
 30
0.0
 70
   128
 71
   -27
 72
   -26
 73
    30
  0
VERTEX
  8
12STG26-MAIN
  5
CB9
 10
0.0
 20
0.0
 30
0.0
 70
   128
 71
   -27
 72
    28
 73
   -26
  0
VERTEX
  8
12STG26-MAIN
  5
CBA
 10
0.0
 20
0.0
 30
0.0
 70
   128
 71
   -30
 72
   -29
 73
    31
  0
VERTEX
  8
12STG26-MAIN
  5
CBB
 10
0.0
 20
0.0
 30
0.0
 70
   128
 71
   -30
 72
    26
 73
   -29
  0
VERTEX
  8
12STG26-MAIN
  5
CBC
 10
0.0
 20
0.0
 30
0.0
 70
   128
 71
   -31
 72
   -62
 73
    63
  0
VERTEX
  8
12STG26-MAIN
  5
CBD
 10
0.0
 20
0.0
 30
0.0
 70
   128
 71
   -31
 72
    29
 73
   -62
  0
VERTEX
  8
12STG26-MAIN
  5
CBE
 10
0.0
 20
0.0
 30
0.0
 70
   128
 71
   -33
 72
   -34
 73
    32
  0
VERTEX
  8
12STG26-MAIN
  5
CBF
 10
0.0
 20
0.0
 30
0.0
 70
   128
 71
   -33
 72
    23
 73
   -34
  0
VERTEX
  8
12STG26-MAIN
  5
CC0
 10
0.0
 20
0.0
 30
0.0
 70
   128
 71
   -32
 72
   -37
 73
    38
  0
VERTEX
  8
12STG26-MAIN
  5
CC1
 10
0.0
 20
0.0
 30
0.0
 70
   128
 71
   -32
 72
    34
 73
   -37
  0
VERTEX
  8
12STG26-MAIN
  5
CC2
 10
0.0
 20
0.0
 30
0.0
 70
   128
 71
   -38
 72
   -36
 73
    35
  0
VERTEX
  8
12STG26-MAIN
  5
CC3
 10
0.0
 20
0.0
 30
0.0
 70
   128
 71
   -38
 72
    37
 73
   -36
  0
VERTEX
  8
12STG26-MAIN
  5
CC4
 10
0.0
 20
0.0
 30
0.0
 70
   128
 71
   -56
 72
   -40
 73
    39
  0
VERTEX
  8
12STG26-MAIN
  5
CC5
 10
0.0
 20
0.0
 30
0.0
 70
   128
 71
   -56
 72
    41
 73
   -40
  0
VERTEX
  8
12STG26-MAIN
  5
CC6
 10
0.0
 20
0.0
 30
0.0
 70
   128
 71
   -39
 72
   -42
 73
    44
  0
VERTEX
  8
12STG26-MAIN
  5
CC7
 10
0.0
 20
0.0
 30
0.0
 70
   128
 71
   -39
 72
    40
 73
   -42
  0
VERTEX
  8
12STG26-MAIN
  5
CC8
 10
0.0
 20
0.0
 30
0.0
 70
   128
 71
   -44
 72
   -45
 73
    43
  0
VERTEX
  8
12STG26-MAIN
  5
CC9
 10
0.0
 20
0.0
 30
0.0
 70
   128
 71
   -44
 72
    42
 73
   -45
  0
VERTEX
  8
12STG26-MAIN
  5
CCA
 10
0.0
 20
0.0
 30
0.0
 70
   128
 71
   -48
 72
   -47
 73
    46
  0
VERTEX
  8
12STG26-MAIN
  5
CCB
 10
0.0
 20
0.0
 30
0.0
 70
   128
 71
   -48
 72
    60
 73
   -47
  0
VERTEX
  8
12STG26-MAIN
  5
CCC
 10
0.0
 20
0.0
 30
0.0
 70
   128
 71
   -46
 72
   -49
 73
    53
  0
VERTEX
  8
12STG26-MAIN
  5
CCD
 10
0.0
 20
0.0
 30
0.0
 70
   128
 71
   -46
 72
    47
 73
   -49
  0
VERTEX
  8
12STG26-MAIN
  5
CCE
 10
0.0
 20
0.0
 30
0.0
 70
   128
 71
   -43
 72
   -50
 73
    72
  0
VERTEX
  8
12STG26-MAIN
  5
CCF
 10
0.0
 20
0.0
 30
0.0
 70
   128
 71
   -43
 72
    45
 73
   -50
  0
VERTEX
  8
12STG26-MAIN
  5
CD0
 10
0.0
 20
0.0
 30
0.0
 70
   128
 71
   -53
 72
   -52
 73
    51
  0
VERTEX
  8
12STG26-MAIN
  5
CD1
 10
0.0
 20
0.0
 30
0.0
 70
   128
 71
   -53
 72
    49
 73
   -52
  0
VERTEX
  8
12STG26-MAIN
  5
CD2
 10
0.0
 20
0.0
 30
0.0
 70
   128
 71
   -51
 72
   -55
 73
    54
  0
VERTEX
  8
12STG26-MAIN
  5
CD3
 10
0.0
 20
0.0
 30
0.0
 70
   128
 71
   -51
 72
    52
 73
   -55
  0
VERTEX
  8
12STG26-MAIN
  5
CD4
 10
0.0
 20
0.0
 30
0.0
 70
   128
 71
   -57
 72
   -41
 73
    56
  0
VERTEX
  8
12STG26-MAIN
  5
CD5
 10
0.0
 20
0.0
 30
0.0
 70
   128
 71
   -57
 72
    58
 73
   -41
  0
VERTEX
  8
12STG26-MAIN
  5
CD6
 10
0.0
 20
0.0
 30
0.0
 70
   128
 71
   -59
 72
   -60
 73
    48
  0
VERTEX
  8
12STG26-MAIN
  5
CD7
 10
0.0
 20
0.0
 30
0.0
 70
   128
 71
   -59
 72
    67
 73
   -60
  0
VERTEX
  8
12STG26-MAIN
  5
CD8
 10
0.0
 20
0.0
 30
0.0
 70
   128
 71
   -63
 72
   -61
 73
    64
  0
VERTEX
  8
12STG26-MAIN
  5
CD9
 10
0.0
 20
0.0
 30
0.0
 70
   128
 71
   -63
 72
    62
 73
   -61
  0
VERTEX
  8
12STG26-MAIN
  5
CDA
 10
0.0
 20
0.0
 30
0.0
 70
   128
 71
   -64
 72
   -58
 73
    57
  0
VERTEX
  8
12STG26-MAIN
  5
CDB
 10
0.0
 20
0.0
 30
0.0
 70
   128
 71
   -64
 72
    61
 73
   -58
  0
VERTEX
  8
12STG26-MAIN
  5
CDC
 10
0.0
 20
0.0
 30
0.0
 70
   128
 71
   -35
 72
   -66
 73
    65
  0
VERTEX
  8
12STG26-MAIN
  5
CDD
 10
0.0
 20
0.0
 30
0.0
 70
   128
 71
   -35
 72
    36
 73
   -66
  0
VERTEX
  8
12STG26-MAIN
  5
CDE
 10
0.0
 20
0.0
 30
0.0
 70
   128
 71
   -65
 72
   -68
 73
    69
  0
VERTEX
  8
12STG26-MAIN
  5
CDF
 10
0.0
 20
0.0
 30
0.0
 70
   128
 71
   -65
 72
    66
 73
   -68
  0
VERTEX
  8
12STG26-MAIN
  5
CE0
 10
0.0
 20
0.0
 30
0.0
 70
   128
 71
   -69
 72
   -67
 73
    59
  0
VERTEX
  8
12STG26-MAIN
  5
CE1
 10
0.0
 20
0.0
 30
0.0
 70
   128
 71
   -69
 72
    68
 73
   -67
  0
VERTEX
  8
12STG26-MAIN
  5
CE2
 10
0.0
 20
0.0
 30
0.0
 70
   128
 71
   -72
 72
   -71
 73
    70
  0
VERTEX
  8
12STG26-MAIN
  5
CE3
 10
0.0
 20
0.0
 30
0.0
 70
   128
 71
   -72
 72
    50
 73
   -71
  0
VERTEX
  8
12STG26-MAIN
  5
CE4
 10
0.0
 20
0.0
 30
0.0
 70
   128
 71
   -70
 72
   -73
 73
    75
  0
VERTEX
  8
12STG26-MAIN
  5
CE5
 10
0.0
 20
0.0
 30
0.0
 70
   128
 71
   -70
 72
    71
 73
   -73
  0
VERTEX
  8
12STG26-MAIN
  5
CE6
 10
0.0
 20
0.0
 30
0.0
 70
   128
 71
   -75
 72
   -77
 73
    74
  0
VERTEX
  8
12STG26-MAIN
  5
CE7
 10
0.0
 20
0.0
 30
0.0
 70
   128
 71
   -75
 72
    73
 73
   -77
  0
VERTEX
  8
12STG26-MAIN
  5
CE8
 10
0.0
 20
0.0
 30
0.0
 70
   128
 71
   -74
 72
   -76
 73
    96
  0
VERTEX
  8
12STG26-MAIN
  5
CE9
 10
0.0
 20
0.0
 30
0.0
 70
   128
 71
   -74
 72
    77
 73
   -76
  0
VERTEX
  8
12STG26-MAIN
  5
CEA
 10
0.0
 20
0.0
 30
0.0
 70
   128
 71
   -54
 72
   -78
 73
    80
  0
VERTEX
  8
12STG26-MAIN
  5
CEB
 10
0.0
 20
0.0
 30
0.0
 70
   128
 71
   -54
 72
    55
 73
   -78
  0
VERTEX
  8
12STG26-MAIN
  5
CEC
 10
0.0
 20
0.0
 30
0.0
 70
   128
 71
   -80
 72
   -79
 73
    82
  0
VERTEX
  8
12STG26-MAIN
  5
CED
 10
0.0
 20
0.0
 30
0.0
 70
   128
 71
   -80
 72
    78
 73
   -79
  0
VERTEX
  8
12STG26-MAIN
  5
CEE
 10
0.0
 20
0.0
 30
0.0
 70
   128
 71
   -82
 72
   -81
 73
    84
  0
VERTEX
  8
12STG26-MAIN
  5
CEF
 10
0.0
 20
0.0
 30
0.0
 70
   128
 71
   -82
 72
    79
 73
   -81
  0
VERTEX
  8
12STG26-MAIN
  5
CF0
 10
0.0
 20
0.0
 30
0.0
 70
   128
 71
   -84
 72
   -83
 73
    98
  0
VERTEX
  8
12STG26-MAIN
  5
CF1
 10
0.0
 20
0.0
 30
0.0
 70
   128
 71
   -84
 72
    81
 73
   -83
  0
VERTEX
  8
12STG26-MAIN
  5
CF2
 10
0.0
 20
0.0
 30
0.0
 70
   128
 71
   -88
 72
    85
 73
   -87
  0
VERTEX
  8
12STG26-MAIN
  5
CF3
 10
0.0
 20
0.0
 30
0.0
 70
   128
 71
    88
 72
   -95
 73
   -85
  0
VERTEX
  8
12STG26-MAIN
  5
CF4
 10
0.0
 20
0.0
 30
0.0
 70
   128
 71
   -89
 72
    87
 73
    86
  0
VERTEX
  8
12STG26-MAIN
  5
CF5
 10
0.0
 20
0.0
 30
0.0
 70
   128
 71
    89
 72
   -88
 73
   -87
  0
VERTEX
  8
12STG26-MAIN
  5
CF6
 10
0.0
 20
0.0
 30
0.0
 70
   128
 71
   -94
 72
    91
 73
   -90
  0
VERTEX
  8
12STG26-MAIN
  5
CF7
 10
0.0
 20
0.0
 30
0.0
 70
   128
 71
    94
 72
   -97
 73
   -91
  0
VERTEX
  8
12STG26-MAIN
  5
CF8
 10
0.0
 20
0.0
 30
0.0
 70
   128
 71
   -93
 72
    90
 73
    92
  0
VERTEX
  8
12STG26-MAIN
  5
CF9
 10
0.0
 20
0.0
 30
0.0
 70
   128
 71
    93
 72
   -94
 73
   -90
  0
VERTEX
  8
12STG26-MAIN
  5
CFA
 10
0.0
 20
0.0
 30
0.0
 70
   128
 71
   -96
 72
   -85
 73
    95
  0
VERTEX
  8
12STG26-MAIN
  5
CFB
 10
0.0
 20
0.0
 30
0.0
 70
   128
 71
   -96
 72
    76
 73
   -85
  0
VERTEX
  8
12STG26-MAIN
  5
CFC
 10
0.0
 20
0.0
 30
0.0
 70
   128
 71
   -98
 72
   -91
 73
    97
  0
VERTEX
  8
12STG26-MAIN
  5
CFD
 10
0.0
 20
0.0
 30
0.0
 70
   128
 71
   -98
 72
    83
 73
   -91
  0
VERTEX
  8
12STG26-MAIN
  5
CFE
 10
0.0
 20
0.0
 30
0.0
 70
   128
 71
  -268
 72
  -101
 73
   100
  0
VERTEX
  8
12STG26-MAIN
  5
CFF
 10
0.0
 20
0.0
 30
0.0
 70
   128
 71
    99
 72
  -101
 73
   268
  0
VERTEX
  8
12STG26-MAIN
  5
D00
 10
0.0
 20
0.0
 30
0.0
 70
   128
 71
  -100
 72
  -102
 73
   104
  0
VERTEX
  8
12STG26-MAIN
  5
D01
 10
0.0
 20
0.0
 30
0.0
 70
   128
 71
   101
 72
  -102
 73
  -100
  0
VERTEX
  8
12STG26-MAIN
  5
D02
 10
0.0
 20
0.0
 30
0.0
 70
   128
 71
  -104
 72
  -103
 73
   105
  0
VERTEX
  8
12STG26-MAIN
  5
D03
 10
0.0
 20
0.0
 30
0.0
 70
   128
 71
   102
 72
  -103
 73
  -104
  0
VERTEX
  8
12STG26-MAIN
  5
D04
 10
0.0
 20
0.0
 30
0.0
 70
   128
 71
  -105
 72
  -107
 73
   106
  0
VERTEX
  8
12STG26-MAIN
  5
D05
 10
0.0
 20
0.0
 30
0.0
 70
   128
 71
   103
 72
  -107
 73
  -105
  0
VERTEX
  8
12STG26-MAIN
  5
D06
 10
0.0
 20
0.0
 30
0.0
 70
   128
 71
  -106
 72
  -109
 73
   108
  0
VERTEX
  8
12STG26-MAIN
  5
D07
 10
0.0
 20
0.0
 30
0.0
 70
   128
 71
   107
 72
  -109
 73
  -106
  0
VERTEX
  8
12STG26-MAIN
  5
D08
 10
0.0
 20
0.0
 30
0.0
 70
   128
 71
  -108
 72
  -111
 73
   112
  0
VERTEX
  8
12STG26-MAIN
  5
D09
 10
0.0
 20
0.0
 30
0.0
 70
   128
 71
   109
 72
  -111
 73
  -108
  0
VERTEX
  8
12STG26-MAIN
  5
D0A
 10
0.0
 20
0.0
 30
0.0
 70
   128
 71
  -113
 72
   111
 73
  -110
  0
VERTEX
  8
12STG26-MAIN
  5
D0B
 10
0.0
 20
0.0
 30
0.0
 70
   128
 71
  -112
 72
  -111
 73
   113
  0
VERTEX
  8
12STG26-MAIN
  5
D0C
 10
0.0
 20
0.0
 30
0.0
 70
   128
 71
  -114
 72
   110
 73
  -115
  0
VERTEX
  8
12STG26-MAIN
  5
D0D
 10
0.0
 20
0.0
 30
0.0
 70
   128
 71
  -113
 72
  -110
 73
   114
  0
VERTEX
  8
12STG26-MAIN
  5
D0E
 10
0.0
 20
0.0
 30
0.0
 70
   128
 71
  -117
 72
   115
 73
  -116
  0
VERTEX
  8
12STG26-MAIN
  5
D0F
 10
0.0
 20
0.0
 30
0.0
 70
   128
 71
  -114
 72
  -115
 73
   117
  0
VERTEX
  8
12STG26-MAIN
  5
D10
 10
0.0
 20
0.0
 30
0.0
 70
   128
 71
  -119
 72
   116
 73
  -120
  0
VERTEX
  8
12STG26-MAIN
  5
D11
 10
0.0
 20
0.0
 30
0.0
 70
   128
 71
  -117
 72
  -116
 73
   119
  0
VERTEX
  8
12STG26-MAIN
  5
D12
 10
0.0
 20
0.0
 30
0.0
 70
   128
 71
  -118
 72
   120
 73
  -123
  0
VERTEX
  8
12STG26-MAIN
  5
D13
 10
0.0
 20
0.0
 30
0.0
 70
   128
 71
  -119
 72
  -120
 73
   118
  0
VERTEX
  8
12STG26-MAIN
  5
D14
 10
0.0
 20
0.0
 30
0.0
 70
   128
 71
  -122
 72
   123
 73
  -121
  0
VERTEX
  8
12STG26-MAIN
  5
D15
 10
0.0
 20
0.0
 30
0.0
 70
   128
 71
  -118
 72
  -123
 73
   122
  0
VERTEX
  8
12STG26-MAIN
  5
D16
 10
0.0
 20
0.0
 30
0.0
 70
   128
 71
  -124
 72
   121
 73
  -125
  0
VERTEX
  8
12STG26-MAIN
  5
D17
 10
0.0
 20
0.0
 30
0.0
 70
   128
 71
  -122
 72
  -121
 73
   124
  0
VERTEX
  8
12STG26-MAIN
  5
D18
 10
0.0
 20
0.0
 30
0.0
 70
   128
 71
  -126
 72
   125
 73
  -129
  0
VERTEX
  8
12STG26-MAIN
  5
D19
 10
0.0
 20
0.0
 30
0.0
 70
   128
 71
  -124
 72
  -125
 73
   126
  0
VERTEX
  8
12STG26-MAIN
  5
D1A
 10
0.0
 20
0.0
 30
0.0
 70
   128
 71
  -128
 72
   129
 73
  -127
  0
VERTEX
  8
12STG26-MAIN
  5
D1B
 10
0.0
 20
0.0
 30
0.0
 70
   128
 71
  -126
 72
  -129
 73
   128
  0
VERTEX
  8
12STG26-MAIN
  5
D1C
 10
0.0
 20
0.0
 30
0.0
 70
   128
 71
  -130
 72
   127
 73
  -132
  0
VERTEX
  8
12STG26-MAIN
  5
D1D
 10
0.0
 20
0.0
 30
0.0
 70
   128
 71
  -128
 72
  -127
 73
   130
  0
VERTEX
  8
12STG26-MAIN
  5
D1E
 10
0.0
 20
0.0
 30
0.0
 70
   128
 71
  -133
 72
   132
 73
  -131
  0
VERTEX
  8
12STG26-MAIN
  5
D1F
 10
0.0
 20
0.0
 30
0.0
 70
   128
 71
  -130
 72
  -132
 73
   133
  0
VERTEX
  8
12STG26-MAIN
  5
D20
 10
0.0
 20
0.0
 30
0.0
 70
   128
 71
  -135
 72
   131
 73
  -136
  0
VERTEX
  8
12STG26-MAIN
  5
D21
 10
0.0
 20
0.0
 30
0.0
 70
   128
 71
  -133
 72
  -131
 73
   135
  0
VERTEX
  8
12STG26-MAIN
  5
D22
 10
0.0
 20
0.0
 30
0.0
 70
   128
 71
  -134
 72
   136
 73
  -139
  0
VERTEX
  8
12STG26-MAIN
  5
D23
 10
0.0
 20
0.0
 30
0.0
 70
   128
 71
  -135
 72
  -136
 73
   134
  0
VERTEX
  8
12STG26-MAIN
  5
D24
 10
0.0
 20
0.0
 30
0.0
 70
   128
 71
  -138
 72
   139
 73
  -137
  0
VERTEX
  8
12STG26-MAIN
  5
D25
 10
0.0
 20
0.0
 30
0.0
 70
   128
 71
  -134
 72
  -139
 73
   138
  0
VERTEX
  8
12STG26-MAIN
  5
D26
 10
0.0
 20
0.0
 30
0.0
 70
   128
 71
  -141
 72
   137
 73
  -140
  0
VERTEX
  8
12STG26-MAIN
  5
D27
 10
0.0
 20
0.0
 30
0.0
 70
   128
 71
  -138
 72
  -137
 73
   141
  0
VERTEX
  8
12STG26-MAIN
  5
D28
 10
0.0
 20
0.0
 30
0.0
 70
   128
 71
  -142
 72
   140
 73
  -143
  0
VERTEX
  8
12STG26-MAIN
  5
D29
 10
0.0
 20
0.0
 30
0.0
 70
   128
 71
  -141
 72
  -140
 73
   142
  0
VERTEX
  8
12STG26-MAIN
  5
D2A
 10
0.0
 20
0.0
 30
0.0
 70
   128
 71
  -142
 72
  -144
 73
   146
  0
VERTEX
  8
12STG26-MAIN
  5
D2B
 10
0.0
 20
0.0
 30
0.0
 70
   128
 71
   143
 72
  -144
 73
  -142
  0
VERTEX
  8
12STG26-MAIN
  5
D2C
 10
0.0
 20
0.0
 30
0.0
 70
   128
 71
  -146
 72
   147
 73
   145
  0
VERTEX
  8
12STG26-MAIN
  5
D2D
 10
0.0
 20
0.0
 30
0.0
 70
   128
 71
   144
 72
  -147
 73
  -146
  0
VERTEX
  8
12STG26-MAIN
  5
D2E
 10
0.0
 20
0.0
 30
0.0
 70
   128
 71
  -226
 72
  -150
 73
   148
  0
VERTEX
  8
12STG26-MAIN
  5
D2F
 10
0.0
 20
0.0
 30
0.0
 70
   128
 71
   225
 72
  -150
 73
   226
  0
VERTEX
  8
12STG26-MAIN
  5
D30
 10
0.0
 20
0.0
 30
0.0
 70
   128
 71
  -148
 72
  -149
 73
   151
  0
VERTEX
  8
12STG26-MAIN
  5
D31
 10
0.0
 20
0.0
 30
0.0
 70
   128
 71
   150
 72
  -149
 73
  -148
  0
VERTEX
  8
12STG26-MAIN
  5
D32
 10
0.0
 20
0.0
 30
0.0
 70
   128
 71
  -151
 72
  -152
 73
   154
  0
VERTEX
  8
12STG26-MAIN
  5
D33
 10
0.0
 20
0.0
 30
0.0
 70
   128
 71
   149
 72
  -152
 73
  -151
  0
VERTEX
  8
12STG26-MAIN
  5
D34
 10
0.0
 20
0.0
 30
0.0
 70
   128
 71
  -154
 72
  -155
 73
   153
  0
VERTEX
  8
12STG26-MAIN
  5
D35
 10
0.0
 20
0.0
 30
0.0
 70
   128
 71
   152
 72
  -155
 73
  -154
  0
VERTEX
  8
12STG26-MAIN
  5
D36
 10
0.0
 20
0.0
 30
0.0
 70
   128
 71
  -153
 72
  -158
 73
   156
  0
VERTEX
  8
12STG26-MAIN
  5
D37
 10
0.0
 20
0.0
 30
0.0
 70
   128
 71
   155
 72
  -158
 73
  -153
  0
VERTEX
  8
12STG26-MAIN
  5
D38
 10
0.0
 20
0.0
 30
0.0
 70
   128
 71
  -156
 72
  -160
 73
   157
  0
VERTEX
  8
12STG26-MAIN
  5
D39
 10
0.0
 20
0.0
 30
0.0
 70
   128
 71
   158
 72
  -160
 73
  -156
  0
VERTEX
  8
12STG26-MAIN
  5
D3A
 10
0.0
 20
0.0
 30
0.0
 70
   128
 71
  -159
 72
   160
 73
  -161
  0
VERTEX
  8
12STG26-MAIN
  5
D3B
 10
0.0
 20
0.0
 30
0.0
 70
   128
 71
  -157
 72
  -160
 73
   159
  0
VERTEX
  8
12STG26-MAIN
  5
D3C
 10
0.0
 20
0.0
 30
0.0
 70
   128
 71
  -162
 72
   161
 73
  -164
  0
VERTEX
  8
12STG26-MAIN
  5
D3D
 10
0.0
 20
0.0
 30
0.0
 70
   128
 71
  -159
 72
  -161
 73
   162
  0
VERTEX
  8
12STG26-MAIN
  5
D3E
 10
0.0
 20
0.0
 30
0.0
 70
   128
 71
  -166
 72
   164
 73
  -163
  0
VERTEX
  8
12STG26-MAIN
  5
D3F
 10
0.0
 20
0.0
 30
0.0
 70
   128
 71
  -162
 72
  -164
 73
   166
  0
VERTEX
  8
12STG26-MAIN
  5
D40
 10
0.0
 20
0.0
 30
0.0
 70
   128
 71
  -165
 72
   163
 73
  -168
  0
VERTEX
  8
12STG26-MAIN
  5
D41
 10
0.0
 20
0.0
 30
0.0
 70
   128
 71
  -166
 72
  -163
 73
   165
  0
VERTEX
  8
12STG26-MAIN
  5
D42
 10
0.0
 20
0.0
 30
0.0
 70
   128
 71
  -167
 72
   168
 73
  -170
  0
VERTEX
  8
12STG26-MAIN
  5
D43
 10
0.0
 20
0.0
 30
0.0
 70
   128
 71
  -165
 72
  -168
 73
   167
  0
VERTEX
  8
12STG26-MAIN
  5
D44
 10
0.0
 20
0.0
 30
0.0
 70
   128
 71
  -169
 72
   170
 73
  -172
  0
VERTEX
  8
12STG26-MAIN
  5
D45
 10
0.0
 20
0.0
 30
0.0
 70
   128
 71
  -167
 72
  -170
 73
   169
  0
VERTEX
  8
12STG26-MAIN
  5
D46
 10
0.0
 20
0.0
 30
0.0
 70
   128
 71
  -171
 72
   172
 73
  -173
  0
VERTEX
  8
12STG26-MAIN
  5
D47
 10
0.0
 20
0.0
 30
0.0
 70
   128
 71
  -169
 72
  -172
 73
   171
  0
VERTEX
  8
12STG26-MAIN
  5
D48
 10
0.0
 20
0.0
 30
0.0
 70
   128
 71
  -175
 72
   173
 73
  -176
  0
VERTEX
  8
12STG26-MAIN
  5
D49
 10
0.0
 20
0.0
 30
0.0
 70
   128
 71
  -171
 72
  -173
 73
   175
  0
VERTEX
  8
12STG26-MAIN
  5
D4A
 10
0.0
 20
0.0
 30
0.0
 70
   128
 71
  -174
 72
   176
 73
  -178
  0
VERTEX
  8
12STG26-MAIN
  5
D4B
 10
0.0
 20
0.0
 30
0.0
 70
   128
 71
  -175
 72
  -176
 73
   174
  0
VERTEX
  8
12STG26-MAIN
  5
D4C
 10
0.0
 20
0.0
 30
0.0
 70
   128
 71
  -177
 72
   178
 73
  -179
  0
VERTEX
  8
12STG26-MAIN
  5
D4D
 10
0.0
 20
0.0
 30
0.0
 70
   128
 71
  -174
 72
  -178
 73
   177
  0
VERTEX
  8
12STG26-MAIN
  5
D4E
 10
0.0
 20
0.0
 30
0.0
 70
   128
 71
  -180
 72
   179
 73
  -183
  0
VERTEX
  8
12STG26-MAIN
  5
D4F
 10
0.0
 20
0.0
 30
0.0
 70
   128
 71
  -177
 72
  -179
 73
   180
  0
VERTEX
  8
12STG26-MAIN
  5
D50
 10
0.0
 20
0.0
 30
0.0
 70
   128
 71
  -182
 72
   183
 73
  -181
  0
VERTEX
  8
12STG26-MAIN
  5
D51
 10
0.0
 20
0.0
 30
0.0
 70
   128
 71
  -180
 72
  -183
 73
   182
  0
VERTEX
  8
12STG26-MAIN
  5
D52
 10
0.0
 20
0.0
 30
0.0
 70
   128
 71
  -184
 72
   181
 73
  -185
  0
VERTEX
  8
12STG26-MAIN
  5
D53
 10
0.0
 20
0.0
 30
0.0
 70
   128
 71
  -182
 72
  -181
 73
   184
  0
VERTEX
  8
12STG26-MAIN
  5
D54
 10
0.0
 20
0.0
 30
0.0
 70
   128
 71
  -186
 72
   185
 73
  -188
  0
VERTEX
  8
12STG26-MAIN
  5
D55
 10
0.0
 20
0.0
 30
0.0
 70
   128
 71
  -184
 72
  -185
 73
   186
  0
VERTEX
  8
12STG26-MAIN
  5
D56
 10
0.0
 20
0.0
 30
0.0
 70
   128
 71
  -187
 72
   188
 73
  -191
  0
VERTEX
  8
12STG26-MAIN
  5
D57
 10
0.0
 20
0.0
 30
0.0
 70
   128
 71
  -186
 72
  -188
 73
   187
  0
VERTEX
  8
12STG26-MAIN
  5
D58
 10
0.0
 20
0.0
 30
0.0
 70
   128
 71
  -190
 72
   191
 73
  -189
  0
VERTEX
  8
12STG26-MAIN
  5
D59
 10
0.0
 20
0.0
 30
0.0
 70
   128
 71
  -187
 72
  -191
 73
   190
  0
VERTEX
  8
12STG26-MAIN
  5
D5A
 10
0.0
 20
0.0
 30
0.0
 70
   128
 71
  -190
 72
  -194
 73
   193
  0
VERTEX
  8
12STG26-MAIN
  5
D5B
 10
0.0
 20
0.0
 30
0.0
 70
   128
 71
   189
 72
  -194
 73
  -190
  0
VERTEX
  8
12STG26-MAIN
  5
D5C
 10
0.0
 20
0.0
 30
0.0
 70
   128
 71
  -193
 72
   195
 73
   192
  0
VERTEX
  8
12STG26-MAIN
  5
D5D
 10
0.0
 20
0.0
 30
0.0
 70
   128
 71
   194
 72
  -195
 73
  -193
  0
VERTEX
  8
12STG26-MAIN
  5
D5E
 10
0.0
 20
0.0
 30
0.0
 70
   128
 71
  -199
 72
  -197
 73
   196
  0
VERTEX
  8
12STG26-MAIN
  5
D5F
 10
0.0
 20
0.0
 30
0.0
 70
   128
 71
   199
 72
   198
 73
  -197
  0
VERTEX
  8
12STG26-MAIN
  5
D60
 10
0.0
 20
0.0
 30
0.0
 70
   128
 71
  -196
 72
  -200
 73
   202
  0
VERTEX
  8
12STG26-MAIN
  5
D61
 10
0.0
 20
0.0
 30
0.0
 70
   128
 71
  -196
 72
   197
 73
  -200
  0
VERTEX
  8
12STG26-MAIN
  5
D62
 10
0.0
 20
0.0
 30
0.0
 70
   128
 71
  -202
 72
  -201
 73
   204
  0
VERTEX
  8
12STG26-MAIN
  5
D63
 10
0.0
 20
0.0
 30
0.0
 70
   128
 71
  -202
 72
   200
 73
  -201
  0
VERTEX
  8
12STG26-MAIN
  5
D64
 10
0.0
 20
0.0
 30
0.0
 70
   128
 71
  -204
 72
  -203
 73
   206
  0
VERTEX
  8
12STG26-MAIN
  5
D65
 10
0.0
 20
0.0
 30
0.0
 70
   128
 71
  -204
 72
   201
 73
  -203
  0
VERTEX
  8
12STG26-MAIN
  5
D66
 10
0.0
 20
0.0
 30
0.0
 70
   128
 71
  -206
 72
  -205
 73
   207
  0
VERTEX
  8
12STG26-MAIN
  5
D67
 10
0.0
 20
0.0
 30
0.0
 70
   128
 71
  -206
 72
   203
 73
  -205
  0
VERTEX
  8
12STG26-MAIN
  5
D68
 10
0.0
 20
0.0
 30
0.0
 70
   128
 71
   205
 72
  -209
 73
  -208
  0
VERTEX
  8
12STG26-MAIN
  5
D69
 10
0.0
 20
0.0
 30
0.0
 70
   128
 71
   208
 72
  -207
 73
  -205
  0
VERTEX
  8
12STG26-MAIN
  5
D6A
 10
0.0
 20
0.0
 30
0.0
 70
   128
 71
  -208
 72
  -211
 73
   212
  0
VERTEX
  8
12STG26-MAIN
  5
D6B
 10
0.0
 20
0.0
 30
0.0
 70
   128
 71
  -208
 72
   209
 73
  -211
  0
VERTEX
  8
12STG26-MAIN
  5
D6C
 10
0.0
 20
0.0
 30
0.0
 70
   128
 71
   211
 72
  -210
 73
  -214
  0
VERTEX
  8
12STG26-MAIN
  5
D6D
 10
0.0
 20
0.0
 30
0.0
 70
   128
 71
   214
 72
  -212
 73
  -211
  0
VERTEX
  8
12STG26-MAIN
  5
D6E
 10
0.0
 20
0.0
 30
0.0
 70
   128
 71
  -214
 72
  -216
 73
   213
  0
VERTEX
  8
12STG26-MAIN
  5
D6F
 10
0.0
 20
0.0
 30
0.0
 70
   128
 71
  -214
 72
   210
 73
  -216
  0
VERTEX
  8
12STG26-MAIN
  5
D70
 10
0.0
 20
0.0
 30
0.0
 70
   128
 71
  -213
 72
  -219
 73
   215
  0
VERTEX
  8
12STG26-MAIN
  5
D71
 10
0.0
 20
0.0
 30
0.0
 70
   128
 71
  -213
 72
   216
 73
  -219
  0
VERTEX
  8
12STG26-MAIN
  5
D72
 10
0.0
 20
0.0
 30
0.0
 70
   128
 71
   219
 72
  -218
 73
  -217
  0
VERTEX
  8
12STG26-MAIN
  5
D73
 10
0.0
 20
0.0
 30
0.0
 70
   128
 71
   217
 72
  -215
 73
  -219
  0
VERTEX
  8
12STG26-MAIN
  5
D74
 10
0.0
 20
0.0
 30
0.0
 70
   128
 71
   218
 72
   222
 73
  -220
  0
VERTEX
  8
12STG26-MAIN
  5
D75
 10
0.0
 20
0.0
 30
0.0
 70
   128
 71
   220
 72
  -217
 73
  -218
  0
VERTEX
  8
12STG26-MAIN
  5
D76
 10
0.0
 20
0.0
 30
0.0
 70
   128
 71
  -220
 72
  -221
 73
   223
  0
VERTEX
  8
12STG26-MAIN
  5
D77
 10
0.0
 20
0.0
 30
0.0
 70
   128
 71
   220
 72
   222
 73
  -221
  0
VERTEX
  8
12STG26-MAIN
  5
D78
 10
0.0
 20
0.0
 30
0.0
 70
   128
 71
  -223
 72
  -225
 73
     7
  0
VERTEX
  8
12STG26-MAIN
  5
D79
 10
0.0
 20
0.0
 30
0.0
 70
   128
 71
  -223
 72
   221
 73
  -225
  0
VERTEX
  8
12STG26-MAIN
  5
D7A
 10
0.0
 20
0.0
 30
0.0
 70
   128
 71
    -7
 72
  -224
 73
   227
  0
VERTEX
  8
12STG26-MAIN
  5
D7B
 10
0.0
 20
0.0
 30
0.0
 70
   128
 71
    -7
 72
   225
 73
  -224
  0
VERTEX
  8
12STG26-MAIN
  5
D7C
 10
0.0
 20
0.0
 30
0.0
 70
   128
 71
  -227
 72
  -226
 73
     6
  0
VERTEX
  8
12STG26-MAIN
  5
D7D
 10
0.0
 20
0.0
 30
0.0
 70
   128
 71
  -227
 72
   224
 73
  -226
  0
VERTEX
  8
12STG26-MAIN
  5
D7E
 10
0.0
 20
0.0
 30
0.0
 70
   128
 71
    -6
 72
  -230
 73
   229
  0
VERTEX
  8
12STG26-MAIN
  5
D7F
 10
0.0
 20
0.0
 30
0.0
 70
   128
 71
    -6
 72
   226
 73
  -230
  0
VERTEX
  8
12STG26-MAIN
  5
D80
 10
0.0
 20
0.0
 30
0.0
 70
   128
 71
  -229
 72
  -228
 73
   232
  0
VERTEX
  8
12STG26-MAIN
  5
D81
 10
0.0
 20
0.0
 30
0.0
 70
   128
 71
  -229
 72
   230
 73
  -228
  0
VERTEX
  8
12STG26-MAIN
  5
D82
 10
0.0
 20
0.0
 30
0.0
 70
   128
 71
  -232
 72
  -233
 73
   231
  0
VERTEX
  8
12STG26-MAIN
  5
D83
 10
0.0
 20
0.0
 30
0.0
 70
   128
 71
  -232
 72
   228
 73
  -233
  0
VERTEX
  8
12STG26-MAIN
  5
D84
 10
0.0
 20
0.0
 30
0.0
 70
   128
 71
   234
 72
  -231
 73
   233
  0
VERTEX
  8
12STG26-MAIN
  5
D85
 10
0.0
 20
0.0
 30
0.0
 70
   128
 71
  -236
 72
  -238
 73
   239
  0
VERTEX
  8
12STG26-MAIN
  5
D86
 10
0.0
 20
0.0
 30
0.0
 70
   128
 71
   236
 72
   235
 73
  -238
  0
VERTEX
  8
12STG26-MAIN
  5
D87
 10
0.0
 20
0.0
 30
0.0
 70
   128
 71
   238
 72
  -237
 73
  -241
  0
VERTEX
  8
12STG26-MAIN
  5
D88
 10
0.0
 20
0.0
 30
0.0
 70
   128
 71
   241
 72
  -239
 73
  -238
  0
VERTEX
  8
12STG26-MAIN
  5
D89
 10
0.0
 20
0.0
 30
0.0
 70
   128
 71
  -241
 72
  -243
 73
   240
  0
VERTEX
  8
12STG26-MAIN
  5
D8A
 10
0.0
 20
0.0
 30
0.0
 70
   128
 71
  -241
 72
   237
 73
  -243
  0
VERTEX
  8
12STG26-MAIN
  5
D8B
 10
0.0
 20
0.0
 30
0.0
 70
   128
 71
  -240
 72
  -242
 73
   245
  0
VERTEX
  8
12STG26-MAIN
  5
D8C
 10
0.0
 20
0.0
 30
0.0
 70
   128
 71
  -240
 72
   243
 73
  -242
  0
VERTEX
  8
12STG26-MAIN
  5
D8D
 10
0.0
 20
0.0
 30
0.0
 70
   128
 71
  -245
 72
  -246
 73
   244
  0
VERTEX
  8
12STG26-MAIN
  5
D8E
 10
0.0
 20
0.0
 30
0.0
 70
   128
 71
  -245
 72
   242
 73
  -246
  0
VERTEX
  8
12STG26-MAIN
  5
D8F
 10
0.0
 20
0.0
 30
0.0
 70
   128
 71
  -244
 72
  -248
 73
   249
  0
VERTEX
  8
12STG26-MAIN
  5
D90
 10
0.0
 20
0.0
 30
0.0
 70
   128
 71
  -244
 72
   246
 73
  -248
  0
VERTEX
  8
12STG26-MAIN
  5
D91
 10
0.0
 20
0.0
 30
0.0
 70
   128
 71
  -249
 72
  -247
 73
   251
  0
VERTEX
  8
12STG26-MAIN
  5
D92
 10
0.0
 20
0.0
 30
0.0
 70
   128
 71
  -249
 72
   248
 73
  -247
  0
VERTEX
  8
12STG26-MAIN
  5
D93
 10
0.0
 20
0.0
 30
0.0
 70
   128
 71
   247
 72
  -250
 73
  -252
  0
VERTEX
  8
12STG26-MAIN
  5
D94
 10
0.0
 20
0.0
 30
0.0
 70
   128
 71
   252
 72
  -251
 73
  -247
  0
VERTEX
  8
12STG26-MAIN
  5
D95
 10
0.0
 20
0.0
 30
0.0
 70
   128
 71
   250
 72
  -254
 73
  -253
  0
VERTEX
  8
12STG26-MAIN
  5
D96
 10
0.0
 20
0.0
 30
0.0
 70
   128
 71
   253
 72
  -252
 73
  -250
  0
VERTEX
  8
12STG26-MAIN
  5
D97
 10
0.0
 20
0.0
 30
0.0
 70
   128
 71
  -253
 72
  -256
 73
   257
  0
VERTEX
  8
12STG26-MAIN
  5
D98
 10
0.0
 20
0.0
 30
0.0
 70
   128
 71
  -253
 72
   254
 73
  -256
  0
VERTEX
  8
12STG26-MAIN
  5
D99
 10
0.0
 20
0.0
 30
0.0
 70
   128
 71
   256
 72
  -259
 73
  -255
  0
VERTEX
  8
12STG26-MAIN
  5
D9A
 10
0.0
 20
0.0
 30
0.0
 70
   128
 71
   255
 72
  -257
 73
  -256
  0
VERTEX
  8
12STG26-MAIN
  5
D9B
 10
0.0
 20
0.0
 30
0.0
 70
   128
 71
   259
 72
   261
 73
  -258
  0
VERTEX
  8
12STG26-MAIN
  5
D9C
 10
0.0
 20
0.0
 30
0.0
 70
   128
 71
   258
 72
  -255
 73
  -259
  0
VERTEX
  8
12STG26-MAIN
  5
D9D
 10
0.0
 20
0.0
 30
0.0
 70
   128
 71
   261
 72
  -260
 73
  -263
  0
VERTEX
  8
12STG26-MAIN
  5
D9E
 10
0.0
 20
0.0
 30
0.0
 70
   128
 71
   263
 72
   258
 73
  -261
  0
VERTEX
  8
12STG26-MAIN
  5
D9F
 10
0.0
 20
0.0
 30
0.0
 70
   128
 71
  -263
 72
   -99
 73
   262
  0
VERTEX
  8
12STG26-MAIN
  5
DA0
 10
0.0
 20
0.0
 30
0.0
 70
   128
 71
  -263
 72
   260
 73
   -99
  0
VERTEX
  8
12STG26-MAIN
  5
DA1
 10
0.0
 20
0.0
 30
0.0
 70
   128
 71
    99
 72
  -265
 73
  -264
  0
VERTEX
  8
12STG26-MAIN
  5
DA2
 10
0.0
 20
0.0
 30
0.0
 70
   128
 71
   264
 72
  -262
 73
   -99
  0
VERTEX
  8
12STG26-MAIN
  5
DA3
 10
0.0
 20
0.0
 30
0.0
 70
   128
 71
   265
 72
  -268
 73
  -266
  0
VERTEX
  8
12STG26-MAIN
  5
DA4
 10
0.0
 20
0.0
 30
0.0
 70
   128
 71
   266
 72
  -264
 73
  -265
  0
VERTEX
  8
12STG26-MAIN
  5
DA5
 10
0.0
 20
0.0
 30
0.0
 70
   128
 71
  -266
 72
  -269
 73
   267
  0
VERTEX
  8
12STG26-MAIN
  5
DA6
 10
0.0
 20
0.0
 30
0.0
 70
   128
 71
  -266
 72
   268
 73
  -269
  0
VERTEX
  8
12STG26-MAIN
  5
DA7
 10
0.0
 20
0.0
 30
0.0
 70
   128
 71
   269
 72
  -271
 73
  -270
  0
VERTEX
  8
12STG26-MAIN
  5
DA8
 10
0.0
 20
0.0
 30
0.0
 70
   128
 71
   270
 72
  -267
 73
  -269
  0
VERTEX
  8
12STG26-MAIN
  5
DA9
 10
0.0
 20
0.0
 30
0.0
 70
   128
 71
  -270
 72
  -272
 73
   273
  0
VERTEX
  8
12STG26-MAIN
  5
DAA
 10
0.0
 20
0.0
 30
0.0
 70
   128
 71
  -270
 72
   271
 73
  -272
  0
VERTEX
  8
12STG26-MAIN
  5
DAB
 10
0.0
 20
0.0
 30
0.0
 70
   128
 71
   274
 72
  -273
 73
   272
  0
SEQEND
  8
12STG26-MAIN
  5
DAC
  0
POLYLINE
  8
12STG26-MAIN
  5
DAD
 66
     1
 10
0.0
 20
0.0
 30
0.0
 70
    64
 71
   224
 72
   212
1001
AVE_ENTITY_MATERIAL
1002
{
1000

1002
{
1071
        0
1070
     0
1070
     0
1002
{
1070
     0
1070
     0
1070
     0
1040
0.0
1002
}
1070
     0
1070
     0
1002
{
1002
}
1002
}
1002
{
1002
}
1002
{
1002
}
1011
0.0
1021
0.0
1031
0.0
1011
1.0
1021
0.0
1031
0.0
1011
0.0
1021
1.0
1031
0.0
1011
0.0
1021
0.0
1031
1.0
1002
}
1001
AVE_FINISH
1002
{
1070
     0
1005
6EF
1002
}
  0
VERTEX
  8
12STG26-MAIN
  5
DAE
 10
1.247
 20
4.154
 30
36.872
 70
   192
  0
VERTEX
  8
12STG26-MAIN
  5
DAF
 10
0.144
 20
4.154
 30
36.596
 70
   192
  0
VERTEX
  8
12STG26-MAIN
  5
DB0
 10
0.149
 20
4.637
 30
35.954
 70
   192
  0
VERTEX
  8
12STG26-MAIN
  5
DB1
 10
1.176
 20
4.598
 30
37.223
 70
   192
  0
VERTEX
  8
12STG26-MAIN
  5
DB2
 10
0.073
 20
4.598
 30
36.947
 70
   192
  0
VERTEX
  8
12STG26-MAIN
  5
DB3
 10
-0.002
 20
4.56
 30
37.939
 70
   192
  0
VERTEX
  8
12STG26-MAIN
  5
DB4
 10
1.102
 20
4.56
 30
38.215
 70
   192
  0
VERTEX
  8
12STG26-MAIN
  5
DB5
 10
1.991
 20
-0.584
 30
33.266
 70
   192
  0
VERTEX
  8
12STG26-MAIN
  5
DB6
 10
0.838
 20
-0.719
 30
33.782
 70
   192
  0
VERTEX
  8
12STG26-MAIN
  5
DB7
 10
0.888
 20
-0.584
 30
32.99
 70
   192
  0
VERTEX
  8
12STG26-MAIN
  5
DB8
 10
1.088
 20
-2.042
 30
32.242
 70
   192
  0
VERTEX
  8
12STG26-MAIN
  5
DB9
 10
2.134
 20
-2.284
 30
33.529
 70
   192
  0
VERTEX
  8
12STG26-MAIN
  5
DBA
 10
2.249
 20
-1.8
 30
31.505
 70
   192
  0
VERTEX
  8
12STG26-MAIN
  5
DBB
 10
2.191
 20
-2.042
 30
32.518
 70
   192
  0
VERTEX
  8
12STG26-MAIN
  5
DBC
 10
0.938
 20
-0.451
 30
32.2
 70
   192
  0
VERTEX
  8
12STG26-MAIN
  5
DBD
 10
2.041
 20
-0.451
 30
32.476
 70
   192
  0
VERTEX
  8
12STG26-MAIN
  5
DBE
 10
1.054
 20
0.166
 30
30.013
 70
   192
  0
VERTEX
  8
12STG26-MAIN
  5
DBF
 10
2.099
 20
-0.143
 30
31.382
 70
   192
  0
VERTEX
  8
12STG26-MAIN
  5
DC0
 10
0.996
 20
-0.143
 30
31.106
 70
   192
  0
VERTEX
  8
12STG26-MAIN
  5
DC1
 10
1.146
 20
-1.8
 30
31.229
 70
   192
  0
VERTEX
  8
12STG26-MAIN
  5
DC2
 10
0.702
 20
-2.315
 30
37.408
 70
   192
  0
VERTEX
  8
12STG26-MAIN
  5
DC3
 10
0.506
 20
-1.238
 30
38.558
 70
   192
  0
VERTEX
  8
12STG26-MAIN
  5
DC4
 10
1.609
 20
-1.238
 30
38.834
 70
   192
  0
VERTEX
  8
12STG26-MAIN
  5
DC5
 10
0.689
 20
-0.848
 30
35.798
 70
   192
  0
VERTEX
  8
12STG26-MAIN
  5
DC6
 10
0.526
 20
-0.272
 30
37.147
 70
   192
  0
VERTEX
  8
12STG26-MAIN
  5
DC7
 10
1.63
 20
-0.272
 30
37.423
 70
   192
  0
VERTEX
  8
12STG26-MAIN
  5
DC8
 10
0.787
 20
-0.853
 30
34.573
 70
   192
  0
VERTEX
  8
12STG26-MAIN
  5
DC9
 10
1.792
 20
-0.848
 30
36.074
 70
   192
  0
VERTEX
  8
12STG26-MAIN
  5
DCA
 10
1.94
 20
-0.719
 30
34.058
 70
   192
  0
VERTEX
  8
12STG26-MAIN
  5
DCB
 10
1.89
 20
-0.853
 30
34.849
 70
   192
  0
VERTEX
  8
12STG26-MAIN
  5
DCC
 10
0.776
 20
-2.432
 30
36.606
 70
   192
  0
VERTEX
  8
12STG26-MAIN
  5
DCD
 10
1.88
 20
-2.432
 30
36.882
 70
   192
  0
VERTEX
  8
12STG26-MAIN
  5
DCE
 10
1.805
 20
-2.315
 30
37.684
 70
   192
  0
VERTEX
  8
12STG26-MAIN
  5
DCF
 10
1.955
 20
-2.549
 30
36.08
 70
   192
  0
VERTEX
  8
12STG26-MAIN
  5
DD0
 10
0.942
 20
-2.417
 30
34.529
 70
   192
  0
VERTEX
  8
12STG26-MAIN
  5
DD1
 10
0.852
 20
-2.549
 30
35.804
 70
   192
  0
VERTEX
  8
12STG26-MAIN
  5
DD2
 10
1.031
 20
-2.284
 30
33.253
 70
   192
  0
VERTEX
  8
12STG26-MAIN
  5
DD3
 10
2.045
 20
-2.417
 30
34.805
 70
   192
  0
VERTEX
  8
12STG26-MAIN
  5
DD4
 10
2.905
 20
0.726
 30
20.243
 70
   192
  0
VERTEX
  8
12STG26-MAIN
  5
DD5
 10
1.979
 20
0.391
 30
18.148
 70
   192
  0
VERTEX
  8
12STG26-MAIN
  5
DD6
 10
1.891
 20
0.559
 30
19.057
 70
   192
  0
VERTEX
  8
12STG26-MAIN
  5
DD7
 10
3.083
 20
0.391
 30
18.424
 70
   192
  0
VERTEX
  8
12STG26-MAIN
  5
DD8
 10
2.994
 20
0.559
 30
19.333
 70
   192
  0
VERTEX
  8
12STG26-MAIN
  5
DD9
 10
1.802
 20
0.726
 30
19.967
 70
   192
  0
VERTEX
  8
12STG26-MAIN
  5
DDA
 10
2.742
 20
0.67
 30
22.354
 70
   192
  0
VERTEX
  8
12STG26-MAIN
  5
DDB
 10
1.639
 20
0.67
 30
22.078
 70
   192
  0
VERTEX
  8
12STG26-MAIN
  5
DDC
 10
1.741
 20
2.123
 30
19.049
 70
   192
  0
VERTEX
  8
12STG26-MAIN
  5
DDD
 10
1.654
 20
2.243
 30
19.987
 70
   192
  0
VERTEX
  8
12STG26-MAIN
  5
DDE
 10
2.93
 20
2.003
 30
18.386
 70
   192
  0
VERTEX
  8
12STG26-MAIN
  5
DDF
 10
1.828
 20
2.003
 30
18.11
 70
   192
  0
VERTEX
  8
12STG26-MAIN
  5
DE0
 10
2.844
 20
2.123
 30
19.325
 70
   192
  0
VERTEX
  8
12STG26-MAIN
  5
DE1
 10
2.758
 20
2.243
 30
20.263
 70
   192
  0
VERTEX
  8
12STG26-MAIN
  5
DE2
 10
1.577
 20
2.171
 30
21.037
 70
   192
  0
VERTEX
  8
12STG26-MAIN
  5
DE3
 10
1.361
 20
1.716
 30
24.293
 70
   192
  0
VERTEX
  8
12STG26-MAIN
  5
DE4
 10
2.526
 20
2.027
 30
23.412
 70
   192
  0
VERTEX
  8
12STG26-MAIN
  5
DE5
 10
2.464
 20
1.716
 30
24.569
 70
   192
  0
VERTEX
  8
12STG26-MAIN
  5
DE6
 10
2.603
 20
2.099
 30
22.362
 70
   192
  0
VERTEX
  8
12STG26-MAIN
  5
DE7
 10
1.5
 20
2.099
 30
22.086
 70
   192
  0
VERTEX
  8
12STG26-MAIN
  5
DE8
 10
1.423
 20
2.027
 30
23.136
 70
   192
  0
VERTEX
  8
12STG26-MAIN
  5
DE9
 10
2.681
 20
2.171
 30
21.313
 70
   192
  0
VERTEX
  8
12STG26-MAIN
  5
DEA
 10
2.401
 20
1.405
 30
25.726
 70
   192
  0
VERTEX
  8
12STG26-MAIN
  5
DEB
 10
1.298
 20
1.405
 30
25.45
 70
   192
  0
VERTEX
  8
12STG26-MAIN
  5
DEC
 10
1.236
 20
1.096
 30
26.606
 70
   192
  0
VERTEX
  8
12STG26-MAIN
  5
DED
 10
2.339
 20
1.096
 30
26.882
 70
   192
  0
VERTEX
  8
12STG26-MAIN
  5
DEE
 10
1.402
 20
-0.311
 30
26.236
 70
   192
  0
VERTEX
  8
12STG26-MAIN
  5
DEF
 10
2.441
 20
-0.683
 30
27.76
 70
   192
  0
VERTEX
  8
12STG26-MAIN
  5
DF0
 10
2.504
 20
-0.311
 30
26.512
 70
   192
  0
VERTEX
  8
12STG26-MAIN
  5
DF1
 10
2.623
 20
0.179
 30
24.433
 70
   192
  0
VERTEX
  8
12STG26-MAIN
  5
DF2
 10
1.52
 20
0.179
 30
24.157
 70
   192
  0
VERTEX
  8
12STG26-MAIN
  5
DF3
 10
2.563
 20
-0.066
 30
25.472
 70
   192
  0
VERTEX
  8
12STG26-MAIN
  5
DF4
 10
1.46
 20
-0.066
 30
25.196
 70
   192
  0
VERTEX
  8
12STG26-MAIN
  5
DF5
 10
1.579
 20
0.425
 30
23.117
 70
   192
  0
VERTEX
  8
12STG26-MAIN
  5
DF6
 10
2.683
 20
0.425
 30
23.393
 70
   192
  0
VERTEX
  8
12STG26-MAIN
  5
DF7
 10
1.174
 20
0.785
 30
27.763
 70
   192
  0
VERTEX
  8
12STG26-MAIN
  5
DF8
 10
1.111
 20
0.474
 30
28.92
 70
   192
  0
VERTEX
  8
12STG26-MAIN
  5
DF9
 10
2.214
 20
0.474
 30
29.196
 70
   192
  0
VERTEX
  8
12STG26-MAIN
  5
DFA
 10
2.276
 20
0.785
 30
28.039
 70
   192
  0
VERTEX
  8
12STG26-MAIN
  5
DFB
 10
1.337
 20
-0.683
 30
27.484
 70
   192
  0
VERTEX
  8
12STG26-MAIN
  5
DFC
 10
2.377
 20
-1.055
 30
29.009
 70
   192
  0
VERTEX
  8
12STG26-MAIN
  5
DFD
 10
2.156
 20
0.166
 30
30.289
 70
   192
  0
VERTEX
  8
12STG26-MAIN
  5
DFE
 10
1.273
 20
-1.055
 30
28.733
 70
   192
  0
VERTEX
  8
12STG26-MAIN
  5
DFF
 10
1.21
 20
-1.428
 30
29.981
 70
   192
  0
VERTEX
  8
12STG26-MAIN
  5
E00
 10
2.312
 20
-1.428
 30
30.257
 70
   192
  0
VERTEX
  8
12STG26-MAIN
  5
E01
 10
1.247
 20
12.71
 30
36.872
 70
   192
  0
VERTEX
  8
12STG26-MAIN
  5
E02
 10
0.144
 20
12.71
 30
36.596
 70
   192
  0
VERTEX
  8
12STG26-MAIN
  5
E03
 10
1.252
 20
12.228
 30
36.23
 70
   192
  0
VERTEX
  8
12STG26-MAIN
  5
E04
 10
1.792
 20
17.713
 30
36.074
 70
   192
  0
VERTEX
  8
12STG26-MAIN
  5
E05
 10
0.526
 20
17.137
 30
37.147
 70
   192
  0
VERTEX
  8
12STG26-MAIN
  5
E06
 10
1.63
 20
17.137
 30
37.423
 70
   192
  0
VERTEX
  8
12STG26-MAIN
  5
E07
 10
1.89
 20
17.718
 30
34.849
 70
   192
  0
VERTEX
  8
12STG26-MAIN
  5
E08
 10
0.787
 20
17.718
 30
34.573
 70
   192
  0
VERTEX
  8
12STG26-MAIN
  5
E09
 10
0.689
 20
17.713
 30
35.798
 70
   192
  0
VERTEX
  8
12STG26-MAIN
  5
E0A
 10
0.838
 20
17.584
 30
33.782
 70
   192
  0
VERTEX
  8
12STG26-MAIN
  5
E0B
 10
1.94
 20
17.584
 30
34.058
 70
   192
  0
VERTEX
  8
12STG26-MAIN
  5
E0C
 10
0.938
 20
17.316
 30
32.2
 70
   192
  0
VERTEX
  8
12STG26-MAIN
  5
E0D
 10
0.888
 20
17.449
 30
32.99
 70
   192
  0
VERTEX
  8
12STG26-MAIN
  5
E0E
 10
1.991
 20
17.449
 30
33.266
 70
   192
  0
VERTEX
  8
12STG26-MAIN
  5
E0F
 10
0.996
 20
17.008
 30
31.106
 70
   192
  0
VERTEX
  8
12STG26-MAIN
  5
E10
 10
2.041
 20
17.316
 30
32.476
 70
   192
  0
VERTEX
  8
12STG26-MAIN
  5
E11
 10
2.099
 20
17.008
 30
31.382
 70
   192
  0
VERTEX
  8
12STG26-MAIN
  5
E12
 10
2.214
 20
16.391
 30
29.196
 70
   192
  0
VERTEX
  8
12STG26-MAIN
  5
E13
 10
1.111
 20
16.391
 30
28.92
 70
   192
  0
VERTEX
  8
12STG26-MAIN
  5
E14
 10
2.156
 20
16.699
 30
30.289
 70
   192
  0
VERTEX
  8
12STG26-MAIN
  5
E15
 10
1.054
 20
16.699
 30
30.013
 70
   192
  0
VERTEX
  8
12STG26-MAIN
  5
E16
 10
2.339
 20
15.769
 30
26.882
 70
   192
  0
VERTEX
  8
12STG26-MAIN
  5
E17
 10
1.236
 20
15.769
 30
26.606
 70
   192
  0
VERTEX
  8
12STG26-MAIN
  5
E18
 10
1.174
 20
16.08
 30
27.763
 70
   192
  0
VERTEX
  8
12STG26-MAIN
  5
E19
 10
2.276
 20
16.08
 30
28.039
 70
   192
  0
VERTEX
  8
12STG26-MAIN
  5
E1A
 10
2.464
 20
15.149
 30
24.569
 70
   192
  0
VERTEX
  8
12STG26-MAIN
  5
E1B
 10
1.361
 20
15.149
 30
24.293
 70
   192
  0
VERTEX
  8
12STG26-MAIN
  5
E1C
 10
2.401
 20
15.46
 30
25.726
 70
   192
  0
VERTEX
  8
12STG26-MAIN
  5
E1D
 10
1.298
 20
15.46
 30
25.45
 70
   192
  0
VERTEX
  8
12STG26-MAIN
  5
E1E
 10
2.603
 20
14.766
 30
22.362
 70
   192
  0
VERTEX
  8
12STG26-MAIN
  5
E1F
 10
2.526
 20
14.838
 30
23.412
 70
   192
  0
VERTEX
  8
12STG26-MAIN
  5
E20
 10
1.423
 20
14.838
 30
23.136
 70
   192
  0
VERTEX
  8
12STG26-MAIN
  5
E21
 10
1.5
 20
14.766
 30
22.086
 70
   192
  0
VERTEX
  8
12STG26-MAIN
  5
E22
 10
1.577
 20
14.694
 30
21.037
 70
   192
  0
VERTEX
  8
12STG26-MAIN
  5
E23
 10
2.681
 20
14.694
 30
21.313
 70
   192
  0
VERTEX
  8
12STG26-MAIN
  5
E24
 10
1.654
 20
14.622
 30
19.987
 70
   192
  0
VERTEX
  8
12STG26-MAIN
  5
E25
 10
2.758
 20
14.622
 30
20.263
 70
   192
  0
VERTEX
  8
12STG26-MAIN
  5
E26
 10
2.93
 20
14.862
 30
18.386
 70
   192
  0
VERTEX
  8
12STG26-MAIN
  5
E27
 10
1.828
 20
14.862
 30
18.11
 70
   192
  0
VERTEX
  8
12STG26-MAIN
  5
E28
 10
2.844
 20
14.742
 30
19.325
 70
   192
  0
VERTEX
  8
12STG26-MAIN
  5
E29
 10
1.741
 20
14.742
 30
19.049
 70
   192
  0
VERTEX
  8
12STG26-MAIN
  5
E2A
 10
0.506
 20
18.103
 30
38.558
 70
   192
  0
VERTEX
  8
12STG26-MAIN
  5
E2B
 10
1.609
 20
18.103
 30
38.834
 70
   192
  0
VERTEX
  8
12STG26-MAIN
  5
E2C
 10
0.776
 20
19.297
 30
36.606
 70
   192
  0
VERTEX
  8
12STG26-MAIN
  5
E2D
 10
0.702
 20
19.18
 30
37.408
 70
   192
  0
VERTEX
  8
12STG26-MAIN
  5
E2E
 10
1.805
 20
19.18
 30
37.684
 70
   192
  0
VERTEX
  8
12STG26-MAIN
  5
E2F
 10
0.852
 20
19.414
 30
35.804
 70
   192
  0
VERTEX
  8
12STG26-MAIN
  5
E30
 10
1.88
 20
19.297
 30
36.882
 70
   192
  0
VERTEX
  8
12STG26-MAIN
  5
E31
 10
2.045
 20
19.282
 30
34.805
 70
   192
  0
VERTEX
  8
12STG26-MAIN
  5
E32
 10
1.955
 20
19.414
 30
36.08
 70
   192
  0
VERTEX
  8
12STG26-MAIN
  5
E33
 10
0.942
 20
19.282
 30
34.529
 70
   192
  0
VERTEX
  8
12STG26-MAIN
  5
E34
 10
1.031
 20
19.148
 30
33.253
 70
   192
  0
VERTEX
  8
12STG26-MAIN
  5
E35
 10
1.088
 20
18.907
 30
32.242
 70
   192
  0
VERTEX
  8
12STG26-MAIN
  5
E36
 10
2.134
 20
19.148
 30
33.529
 70
   192
  0
VERTEX
  8
12STG26-MAIN
  5
E37
 10
2.249
 20
18.665
 30
31.505
 70
   192
  0
VERTEX
  8
12STG26-MAIN
  5
E38
 10
2.191
 20
18.907
 30
32.518
 70
   192
  0
VERTEX
  8
12STG26-MAIN
  5
E39
 10
1.21
 20
18.293
 30
29.981
 70
   192
  0
VERTEX
  8
12STG26-MAIN
  5
E3A
 10
1.146
 20
18.665
 30
31.229
 70
   192
  0
VERTEX
  8
12STG26-MAIN
  5
E3B
 10
1.273
 20
17.92
 30
28.733
 70
   192
  0
VERTEX
  8
12STG26-MAIN
  5
E3C
 10
2.312
 20
18.293
 30
30.257
 70
   192
  0
VERTEX
  8
12STG26-MAIN
  5
E3D
 10
2.377
 20
17.92
 30
29.009
 70
   192
  0
VERTEX
  8
12STG26-MAIN
  5
E3E
 10
1.337
 20
17.548
 30
27.484
 70
   192
  0
VERTEX
  8
12STG26-MAIN
  5
E3F
 10
2.441
 20
17.548
 30
27.76
 70
   192
  0
VERTEX
  8
12STG26-MAIN
  5
E40
 10
1.46
 20
16.931
 30
25.196
 70
   192
  0
VERTEX
  8
12STG26-MAIN
  5
E41
 10
2.504
 20
17.176
 30
26.512
 70
   192
  0
VERTEX
  8
12STG26-MAIN
  5
E42
 10
1.402
 20
17.176
 30
26.236
 70
   192
  0
VERTEX
  8
12STG26-MAIN
  5
E43
 10
1.52
 20
16.686
 30
24.157
 70
   192
  0
VERTEX
  8
12STG26-MAIN
  5
E44
 10
2.563
 20
16.931
 30
25.472
 70
   192
  0
VERTEX
  8
12STG26-MAIN
  5
E45
 10
2.623
 20
16.686
 30
24.433
 70
   192
  0
VERTEX
  8
12STG26-MAIN
  5
E46
 10
2.742
 20
16.195
 30
22.354
 70
   192
  0
VERTEX
  8
12STG26-MAIN
  5
E47
 10
1.579
 20
16.44
 30
23.117
 70
   192
  0
VERTEX
  8
12STG26-MAIN
  5
E48
 10
2.683
 20
16.44
 30
23.393
 70
   192
  0
VERTEX
  8
12STG26-MAIN
  5
E49
 10
1.802
 20
16.139
 30
19.967
 70
   192
  0
VERTEX
  8
12STG26-MAIN
  5
E4A
 10
1.639
 20
16.195
 30
22.078
 70
   192
  0
VERTEX
  8
12STG26-MAIN
  5
E4B
 10
2.994
 20
16.306
 30
19.333
 70
   192
  0
VERTEX
  8
12STG26-MAIN
  5
E4C
 10
1.891
 20
16.306
 30
19.057
 70
   192
  0
VERTEX
  8
12STG26-MAIN
  5
E4D
 10
2.905
 20
16.139
 30
20.243
 70
   192
  0
VERTEX
  8
12STG26-MAIN
  5
E4E
 10
1.979
 20
16.474
 30
18.148
 70
   192
  0
VERTEX
  8
12STG26-MAIN
  5
E4F
 10
3.083
 20
16.474
 30
18.424
 70
   192
  0
VERTEX
  8
12STG26-MAIN
  5
E50
 10
0.149
 20
12.228
 30
35.954
 70
   192
  0
VERTEX
  8
12STG26-MAIN
  5
E51
 10
0.277
 20
11.185
 30
34.343
 70
   192
  0
VERTEX
  8
12STG26-MAIN
  5
E52
 10
1.38
 20
11.185
 30
34.619
 70
   192
  0
VERTEX
  8
12STG26-MAIN
  5
E53
 10
0.073
 20
12.266
 30
36.947
 70
   192
  0
VERTEX
  8
12STG26-MAIN
  5
E54
 10
1.176
 20
12.266
 30
37.223
 70
   192
  0
VERTEX
  8
12STG26-MAIN
  5
E55
 10
1.252
 20
4.637
 30
36.23
 70
   192
  0
VERTEX
  8
12STG26-MAIN
  5
E56
 10
1.38
 20
5.68
 30
34.619
 70
   192
  0
VERTEX
  8
12STG26-MAIN
  5
E57
 10
0.277
 20
5.68
 30
34.343
 70
   192
  0
VERTEX
  8
12STG26-MAIN
  5
E58
 10
-0.002
 20
12.305
 30
37.939
 70
   192
  0
VERTEX
  8
12STG26-MAIN
  5
E59
 10
1.102
 20
12.305
 30
38.215
 70
   192
  0
VERTEX
  8
12STG26-MAIN
  5
E5A
 10
1.578
 20
12.11
 30
18.048
 70
   192
  0
VERTEX
  8
12STG26-MAIN
  5
E5B
 10
1.458
 20
11.227
 30
19.561
 70
   192
  0
VERTEX
  8
12STG26-MAIN
  5
E5C
 10
2.681
 20
12.11
 30
18.324
 70
   192
  0
VERTEX
  8
12STG26-MAIN
  5
E5D
 10
2.561
 20
11.227
 30
19.837
 70
   192
  0
VERTEX
  8
12STG26-MAIN
  5
E5E
 10
1.373
 20
10.891
 30
20.623
 70
   192
  0
VERTEX
  8
12STG26-MAIN
  5
E5F
 10
2.476
 20
10.891
 30
20.899
 70
   192
  0
VERTEX
  8
12STG26-MAIN
  5
E60
 10
1.254
 20
10.829
 30
22.103
 70
   192
  0
VERTEX
  8
12STG26-MAIN
  5
E61
 10
1.136
 20
10.765
 30
23.582
 70
   192
  0
VERTEX
  8
12STG26-MAIN
  5
E62
 10
2.358
 20
10.829
 30
22.379
 70
   192
  0
VERTEX
  8
12STG26-MAIN
  5
E63
 10
1.031
 20
11.015
 30
24.905
 70
   192
  0
VERTEX
  8
12STG26-MAIN
  5
E64
 10
2.134
 20
11.015
 30
25.181
 70
   192
  0
VERTEX
  8
12STG26-MAIN
  5
E65
 10
2.239
 20
10.765
 30
23.858
 70
   192
  0
VERTEX
  8
12STG26-MAIN
  5
E66
 10
0.925
 20
11.264
 30
26.226
 70
   192
  0
VERTEX
  8
12STG26-MAIN
  5
E67
 10
2.028
 20
11.264
 30
26.502
 70
   192
  0
VERTEX
  8
12STG26-MAIN
  5
E68
 10
0.769
 20
11.801
 30
28.186
 70
   192
  0
VERTEX
  8
12STG26-MAIN
  5
E69
 10
1.872
 20
11.801
 30
28.462
 70
   192
  0
VERTEX
  8
12STG26-MAIN
  5
E6A
 10
0.684
 20
12.014
 30
29.255
 70
   192
  0
VERTEX
  8
12STG26-MAIN
  5
E6B
 10
1.787
 20
12.014
 30
29.531
 70
   192
  0
VERTEX
  8
12STG26-MAIN
  5
E6C
 10
0.598
 20
12.228
 30
30.324
 70
   192
  0
VERTEX
  8
12STG26-MAIN
  5
E6D
 10
1.702
 20
12.228
 30
30.6
 70
   192
  0
VERTEX
  8
12STG26-MAIN
  5
E6E
 10
1.588
 20
11.954
 30
32.028
 70
   192
  0
VERTEX
  8
12STG26-MAIN
  5
E6F
 10
0.484
 20
11.954
 30
31.752
 70
   192
  0
VERTEX
  8
12STG26-MAIN
  5
E70
 10
0.319
 20
10.142
 30
33.826
 70
   192
  0
VERTEX
  8
12STG26-MAIN
  5
E71
 10
0.408
 20
11.334
 30
32.711
 70
   192
  0
VERTEX
  8
12STG26-MAIN
  5
E72
 10
1.511
 20
11.334
 30
32.987
 70
   192
  0
VERTEX
  8
12STG26-MAIN
  5
E73
 10
1.422
 20
10.142
 30
34.102
 70
   192
  0
VERTEX
  8
12STG26-MAIN
  5
E74
 10
1.578
 20
4.754
 30
18.048
 70
   192
  0
VERTEX
  8
12STG26-MAIN
  5
E75
 10
2.681
 20
4.754
 30
18.324
 70
   192
  0
VERTEX
  8
12STG26-MAIN
  5
E76
 10
2.561
 20
5.638
 30
19.837
 70
   192
  0
VERTEX
  8
12STG26-MAIN
  5
E77
 10
1.458
 20
5.638
 30
19.561
 70
   192
  0
VERTEX
  8
12STG26-MAIN
  5
E78
 10
2.476
 20
5.974
 30
20.899
 70
   192
  0
VERTEX
  8
12STG26-MAIN
  5
E79
 10
1.373
 20
5.974
 30
20.623
 70
   192
  0
VERTEX
  8
12STG26-MAIN
  5
E7A
 10
1.254
 20
6.036
 30
22.103
 70
   192
  0
VERTEX
  8
12STG26-MAIN
  5
E7B
 10
2.358
 20
6.036
 30
22.379
 70
   192
  0
VERTEX
  8
12STG26-MAIN
  5
E7C
 10
2.239
 20
6.1
 30
23.858
 70
   192
  0
VERTEX
  8
12STG26-MAIN
  5
E7D
 10
1.031
 20
5.85
 30
24.905
 70
   192
  0
VERTEX
  8
12STG26-MAIN
  5
E7E
 10
1.136
 20
6.1
 30
23.582
 70
   192
  0
VERTEX
  8
12STG26-MAIN
  5
E7F
 10
2.134
 20
5.85
 30
25.181
 70
   192
  0
VERTEX
  8
12STG26-MAIN
  5
E80
 10
0.925
 20
5.6
 30
26.226
 70
   192
  0
VERTEX
  8
12STG26-MAIN
  5
E81
 10
1.872
 20
5.064
 30
28.462
 70
   192
  0
VERTEX
  8
12STG26-MAIN
  5
E82
 10
2.028
 20
5.6
 30
26.502
 70
   192
  0
VERTEX
  8
12STG26-MAIN
  5
E83
 10
0.684
 20
4.85
 30
29.255
 70
   192
  0
VERTEX
  8
12STG26-MAIN
  5
E84
 10
0.769
 20
5.064
 30
28.186
 70
   192
  0
VERTEX
  8
12STG26-MAIN
  5
E85
 10
1.787
 20
4.85
 30
29.531
 70
   192
  0
VERTEX
  8
12STG26-MAIN
  5
E86
 10
1.702
 20
4.637
 30
30.6
 70
   192
  0
VERTEX
  8
12STG26-MAIN
  5
E87
 10
0.598
 20
4.637
 30
30.324
 70
   192
  0
VERTEX
  8
12STG26-MAIN
  5
E88
 10
0.484
 20
4.91
 30
31.752
 70
   192
  0
VERTEX
  8
12STG26-MAIN
  5
E89
 10
1.588
 20
4.91
 30
32.028
 70
   192
  0
VERTEX
  8
12STG26-MAIN
  5
E8A
 10
1.511
 20
5.531
 30
32.987
 70
   192
  0
VERTEX
  8
12STG26-MAIN
  5
E8B
 10
0.408
 20
5.531
 30
32.711
 70
   192
  0
VERTEX
  8
12STG26-MAIN
  5
E8C
 10
0.319
 20
6.722
 30
33.826
 70
   192
  0
VERTEX
  8
12STG26-MAIN
  5
E8D
 10
1.422
 20
6.722
 30
34.102
 70
   192
  0
VERTEX
  8
12STG26-MAIN
  5
E8E
 10
0.0
 20
0.0
 30
0.0
 70
   128
 71
    -4
 72
     6
 73
     7
  0
VERTEX
  8
12STG26-MAIN
  5
E8F
 10
0.0
 20
0.0
 30
0.0
 70
   128
 71
     4
 72
     5
 73
    -6
  0
VERTEX
  8
12STG26-MAIN
  5
E90
 10
0.0
 20
0.0
 30
0.0
 70
   128
 71
  -168
 72
     2
 73
     1
  0
VERTEX
  8
12STG26-MAIN
  5
E91
 10
0.0
 20
0.0
 30
0.0
 70
   128
 71
   168
 72
     3
 73
    -2
  0
VERTEX
  8
12STG26-MAIN
  5
E92
 10
0.0
 20
0.0
 30
0.0
 70
   128
 71
  -168
 72
     5
 73
     4
  0
VERTEX
  8
12STG26-MAIN
  5
E93
 10
0.0
 20
0.0
 30
0.0
 70
   128
 71
   168
 72
     3
 73
    -5
  0
VERTEX
  8
12STG26-MAIN
  5
E94
 10
0.0
 20
0.0
 30
0.0
 70
   128
 71
  -168
 72
     6
 73
     3
  0
VERTEX
  8
12STG26-MAIN
  5
E95
 10
0.0
 20
0.0
 30
0.0
 70
   128
 71
   168
 72
     7
 73
    -6
  0
VERTEX
  8
12STG26-MAIN
  5
E96
 10
0.0
 20
0.0
 30
0.0
 70
   128
 71
    10
 72
    -9
 73
     8
  0
VERTEX
  8
12STG26-MAIN
  5
E97
 10
0.0
 20
0.0
 30
0.0
 70
   128
 71
    29
 72
    -8
 73
     9
  0
VERTEX
  8
12STG26-MAIN
  5
E98
 10
0.0
 20
0.0
 30
0.0
 70
   128
 71
   -15
 72
     8
 73
    16
  0
VERTEX
  8
12STG26-MAIN
  5
E99
 10
0.0
 20
0.0
 30
0.0
 70
   128
 71
    10
 72
    -8
 73
    15
  0
VERTEX
  8
12STG26-MAIN
  5
E9A
 10
0.0
 20
0.0
 30
0.0
 70
   128
 71
   -11
 72
    12
 73
    14
  0
VERTEX
  8
12STG26-MAIN
  5
E9B
 10
0.0
 20
0.0
 30
0.0
 70
   128
 71
    37
 72
   -12
 73
    11
  0
VERTEX
  8
12STG26-MAIN
  5
E9C
 10
0.0
 20
0.0
 30
0.0
 70
   128
 71
   -20
 72
    14
 73
    13
  0
VERTEX
  8
12STG26-MAIN
  5
E9D
 10
0.0
 20
0.0
 30
0.0
 70
   128
 71
    11
 72
   -14
 73
    20
  0
VERTEX
  8
12STG26-MAIN
  5
E9E
 10
0.0
 20
0.0
 30
0.0
 70
   128
 71
   -19
 72
    16
 73
    18
  0
VERTEX
  8
12STG26-MAIN
  5
E9F
 10
0.0
 20
0.0
 30
0.0
 70
   128
 71
    15
 72
   -16
 73
    19
  0
VERTEX
  8
12STG26-MAIN
  5
EA0
 10
0.0
 20
0.0
 30
0.0
 70
   128
 71
   -17
 72
    18
 73
    80
  0
VERTEX
  8
12STG26-MAIN
  5
EA1
 10
0.0
 20
0.0
 30
0.0
 70
   128
 71
    19
 72
   -18
 73
    17
  0
VERTEX
  8
12STG26-MAIN
  5
EA2
 10
0.0
 20
0.0
 30
0.0
 70
   128
 71
   -82
 72
    13
 73
    83
  0
VERTEX
  8
12STG26-MAIN
  5
EA3
 10
0.0
 20
0.0
 30
0.0
 70
   128
 71
    20
 72
   -13
 73
    82
  0
VERTEX
  8
12STG26-MAIN
  5
EA4
 10
0.0
 20
0.0
 30
0.0
 70
   128
 71
   -22
 72
    33
 73
    21
  0
VERTEX
  8
12STG26-MAIN
  5
EA5
 10
0.0
 20
0.0
 30
0.0
 70
   128
 71
    23
 72
   -33
 73
    22
  0
VERTEX
  8
12STG26-MAIN
  5
EA6
 10
0.0
 20
0.0
 30
0.0
 70
   128
 71
   -25
 72
    28
 73
    24
  0
VERTEX
  8
12STG26-MAIN
  5
EA7
 10
0.0
 20
0.0
 30
0.0
 70
   128
 71
    26
 72
   -28
 73
    25
  0
VERTEX
  8
12STG26-MAIN
  5
EA8
 10
0.0
 20
0.0
 30
0.0
 70
   128
 71
   -27
 72
    28
 73
    30
  0
VERTEX
  8
12STG26-MAIN
  5
EA9
 10
0.0
 20
0.0
 30
0.0
 70
   128
 71
    24
 72
   -28
 73
    27
  0
VERTEX
  8
12STG26-MAIN
  5
EAA
 10
0.0
 20
0.0
 30
0.0
 70
   128
 71
    -9
 72
    30
 73
    29
  0
VERTEX
  8
12STG26-MAIN
  5
EAB
 10
0.0
 20
0.0
 30
0.0
 70
   128
 71
    27
 72
   -30
 73
     9
  0
VERTEX
  8
12STG26-MAIN
  5
EAC
 10
0.0
 20
0.0
 30
0.0
 70
   128
 71
   -21
 72
    32
 73
    31
  0
VERTEX
  8
12STG26-MAIN
  5
EAD
 10
0.0
 20
0.0
 30
0.0
 70
   128
 71
    33
 72
   -32
 73
    21
  0
VERTEX
  8
12STG26-MAIN
  5
EAE
 10
0.0
 20
0.0
 30
0.0
 70
   128
 71
   -31
 72
    34
 73
    36
  0
VERTEX
  8
12STG26-MAIN
  5
EAF
 10
0.0
 20
0.0
 30
0.0
 70
   128
 71
    32
 72
   -34
 73
    31
  0
VERTEX
  8
12STG26-MAIN
  5
EB0
 10
0.0
 20
0.0
 30
0.0
 70
   128
 71
   -35
 72
    34
 73
    38
  0
VERTEX
  8
12STG26-MAIN
  5
EB1
 10
0.0
 20
0.0
 30
0.0
 70
   128
 71
    36
 72
   -34
 73
    35
  0
VERTEX
  8
12STG26-MAIN
  5
EB2
 10
0.0
 20
0.0
 30
0.0
 70
   128
 71
   -37
 72
    38
 73
    12
  0
VERTEX
  8
12STG26-MAIN
  5
EB3
 10
0.0
 20
0.0
 30
0.0
 70
   128
 71
    35
 72
   -38
 73
    37
  0
VERTEX
  8
12STG26-MAIN
  5
EB4
 10
0.0
 20
0.0
 30
0.0
 70
   128
 71
   -41
 72
    39
 73
    43
  0
VERTEX
  8
12STG26-MAIN
  5
EB5
 10
0.0
 20
0.0
 30
0.0
 70
   128
 71
    44
 72
   -39
 73
    41
  0
VERTEX
  8
12STG26-MAIN
  5
EB6
 10
0.0
 20
0.0
 30
0.0
 70
   128
 71
   -41
 72
    42
 73
    40
  0
VERTEX
  8
12STG26-MAIN
  5
EB7
 10
0.0
 20
0.0
 30
0.0
 70
   128
 71
    43
 72
   -42
 73
    41
  0
VERTEX
  8
12STG26-MAIN
  5
EB8
 10
0.0
 20
0.0
 30
0.0
 70
   128
 71
   -44
 72
    45
 73
    39
  0
VERTEX
  8
12STG26-MAIN
  5
EB9
 10
0.0
 20
0.0
 30
0.0
 70
   128
 71
    46
 72
   -45
 73
    44
  0
VERTEX
  8
12STG26-MAIN
  5
EBA
 10
0.0
 20
0.0
 30
0.0
 70
   128
 71
   -72
 72
    45
 73
    46
  0
VERTEX
  8
12STG26-MAIN
  5
EBB
 10
0.0
 20
0.0
 30
0.0
 70
   128
 71
    73
 72
   -45
 73
    72
  0
VERTEX
  8
12STG26-MAIN
  5
EBC
 10
0.0
 20
0.0
 30
0.0
 70
   128
 71
   -48
 72
    51
 73
    47
  0
VERTEX
  8
12STG26-MAIN
  5
EBD
 10
0.0
 20
0.0
 30
0.0
 70
   128
 71
    52
 72
   -51
 73
    48
  0
VERTEX
  8
12STG26-MAIN
  5
EBE
 10
0.0
 20
0.0
 30
0.0
 70
   128
 71
   -50
 72
    51
 73
    49
  0
VERTEX
  8
12STG26-MAIN
  5
EBF
 10
0.0
 20
0.0
 30
0.0
 70
   128
 71
    47
 72
   -51
 73
    50
  0
VERTEX
  8
12STG26-MAIN
  5
EC0
 10
0.0
 20
0.0
 30
0.0
 70
   128
 71
   -48
 72
    60
 73
    52
  0
VERTEX
  8
12STG26-MAIN
  5
EC1
 10
0.0
 20
0.0
 30
0.0
 70
   128
 71
    53
 72
   -60
 73
    48
  0
VERTEX
  8
12STG26-MAIN
  5
EC2
 10
0.0
 20
0.0
 30
0.0
 70
   128
 71
   -54
 72
    61
 73
    56
  0
VERTEX
  8
12STG26-MAIN
  5
EC3
 10
0.0
 20
0.0
 30
0.0
 70
   128
 71
    62
 72
   -61
 73
    54
  0
VERTEX
  8
12STG26-MAIN
  5
EC4
 10
0.0
 20
0.0
 30
0.0
 70
   128
 71
   -59
 72
    56
 73
    55
  0
VERTEX
  8
12STG26-MAIN
  5
EC5
 10
0.0
 20
0.0
 30
0.0
 70
   128
 71
    54
 72
   -56
 73
    59
  0
VERTEX
  8
12STG26-MAIN
  5
EC6
 10
0.0
 20
0.0
 30
0.0
 70
   128
 71
   -58
 72
    55
 73
    57
  0
VERTEX
  8
12STG26-MAIN
  5
EC7
 10
0.0
 20
0.0
 30
0.0
 70
   128
 71
    59
 72
   -55
 73
    58
  0
VERTEX
  8
12STG26-MAIN
  5
EC8
 10
0.0
 20
0.0
 30
0.0
 70
   128
 71
   -58
 72
    60
 73
    53
  0
VERTEX
  8
12STG26-MAIN
  5
EC9
 10
0.0
 20
0.0
 30
0.0
 70
   128
 71
    57
 72
   -60
 73
    58
  0
VERTEX
  8
12STG26-MAIN
  5
ECA
 10
0.0
 20
0.0
 30
0.0
 70
   128
 71
   -63
 72
    77
 73
    64
  0
VERTEX
  8
12STG26-MAIN
  5
ECB
 10
0.0
 20
0.0
 30
0.0
 70
   128
 71
    74
 72
   -77
 73
    63
  0
VERTEX
  8
12STG26-MAIN
  5
ECC
 10
0.0
 20
0.0
 30
0.0
 70
   128
 71
   -62
 72
    64
 73
    61
  0
VERTEX
  8
12STG26-MAIN
  5
ECD
 10
0.0
 20
0.0
 30
0.0
 70
   128
 71
    63
 72
   -64
 73
    62
  0
VERTEX
  8
12STG26-MAIN
  5
ECE
 10
0.0
 20
0.0
 30
0.0
 70
   128
 71
   -78
 72
    67
 73
    65
  0
VERTEX
  8
12STG26-MAIN
  5
ECF
 10
0.0
 20
0.0
 30
0.0
 70
   128
 71
    66
 72
   -67
 73
    78
  0
VERTEX
  8
12STG26-MAIN
  5
ED0
 10
0.0
 20
0.0
 30
0.0
 70
   128
 71
   -69
 72
    70
 73
    68
  0
VERTEX
  8
12STG26-MAIN
  5
ED1
 10
0.0
 20
0.0
 30
0.0
 70
   128
 71
    71
 72
   -70
 73
    69
  0
VERTEX
  8
12STG26-MAIN
  5
ED2
 10
0.0
 20
0.0
 30
0.0
 70
   128
 71
   -69
 72
    73
 73
    72
  0
VERTEX
  8
12STG26-MAIN
  5
ED3
 10
0.0
 20
0.0
 30
0.0
 70
   128
 71
    68
 72
   -73
 73
    69
  0
VERTEX
  8
12STG26-MAIN
  5
ED4
 10
0.0
 20
0.0
 30
0.0
 70
   128
 71
   -71
 72
    67
 73
    70
  0
VERTEX
  8
12STG26-MAIN
  5
ED5
 10
0.0
 20
0.0
 30
0.0
 70
   128
 71
    65
 72
   -67
 73
    71
  0
VERTEX
  8
12STG26-MAIN
  5
ED6
 10
0.0
 20
0.0
 30
0.0
 70
   128
 71
   -75
 72
    77
 73
    74
  0
VERTEX
  8
12STG26-MAIN
  5
ED7
 10
0.0
 20
0.0
 30
0.0
 70
   128
 71
    76
 72
   -77
 73
    75
  0
VERTEX
  8
12STG26-MAIN
  5
ED8
 10
0.0
 20
0.0
 30
0.0
 70
   128
 71
   -78
 72
    79
 73
    66
  0
VERTEX
  8
12STG26-MAIN
  5
ED9
 10
0.0
 20
0.0
 30
0.0
 70
   128
 71
    81
 72
   -79
 73
    78
  0
VERTEX
  8
12STG26-MAIN
  5
EDA
 10
0.0
 20
0.0
 30
0.0
 70
   128
 71
   -75
 72
    80
 73
    76
  0
VERTEX
  8
12STG26-MAIN
  5
EDB
 10
0.0
 20
0.0
 30
0.0
 70
   128
 71
    17
 72
   -80
 73
    75
  0
VERTEX
  8
12STG26-MAIN
  5
EDC
 10
0.0
 20
0.0
 30
0.0
 70
   128
 71
   -82
 72
    79
 73
    81
  0
VERTEX
  8
12STG26-MAIN
  5
EDD
 10
0.0
 20
0.0
 30
0.0
 70
   128
 71
    83
 72
   -79
 73
    82
  0
VERTEX
  8
12STG26-MAIN
  5
EDE
 10
0.0
 20
0.0
 30
0.0
 70
   128
 71
   -86
 72
    85
 73
    84
  0
VERTEX
  8
12STG26-MAIN
  5
EDF
 10
0.0
 20
0.0
 30
0.0
 70
   128
 71
    86
 72
   163
 73
   -85
  0
VERTEX
  8
12STG26-MAIN
  5
EE0
 10
0.0
 20
0.0
 30
0.0
 70
   128
 71
   -88
 72
    87
 73
    92
  0
VERTEX
  8
12STG26-MAIN
  5
EE1
 10
0.0
 20
0.0
 30
0.0
 70
   128
 71
    89
 72
   -87
 73
    88
  0
VERTEX
  8
12STG26-MAIN
  5
EE2
 10
0.0
 20
0.0
 30
0.0
 70
   128
 71
   -91
 72
    87
 73
    90
  0
VERTEX
  8
12STG26-MAIN
  5
EE3
 10
0.0
 20
0.0
 30
0.0
 70
   128
 71
    92
 72
   -87
 73
    91
  0
VERTEX
  8
12STG26-MAIN
  5
EE4
 10
0.0
 20
0.0
 30
0.0
 70
   128
 71
   -93
 72
    90
 73
    94
  0
VERTEX
  8
12STG26-MAIN
  5
EE5
 10
0.0
 20
0.0
 30
0.0
 70
   128
 71
    91
 72
   -90
 73
    93
  0
VERTEX
  8
12STG26-MAIN
  5
EE6
 10
0.0
 20
0.0
 30
0.0
 70
   128
 71
    96
 72
   -93
 73
    97
  0
VERTEX
  8
12STG26-MAIN
  5
EE7
 10
0.0
 20
0.0
 30
0.0
 70
   128
 71
    94
 72
   -97
 73
    93
  0
VERTEX
  8
12STG26-MAIN
  5
EE8
 10
0.0
 20
0.0
 30
0.0
 70
   128
 71
   -95
 72
    97
 73
    99
  0
VERTEX
  8
12STG26-MAIN
  5
EE9
 10
0.0
 20
0.0
 30
0.0
 70
   128
 71
    96
 72
   -97
 73
    95
  0
VERTEX
  8
12STG26-MAIN
  5
EEA
 10
0.0
 20
0.0
 30
0.0
 70
   128
 71
   -98
 72
    99
 73
   100
  0
VERTEX
  8
12STG26-MAIN
  5
EEB
 10
0.0
 20
0.0
 30
0.0
 70
   128
 71
    95
 72
   -99
 73
    98
  0
VERTEX
  8
12STG26-MAIN
  5
EEC
 10
0.0
 20
0.0
 30
0.0
 70
   128
 71
  -104
 72
   100
 73
   103
  0
VERTEX
  8
12STG26-MAIN
  5
EED
 10
0.0
 20
0.0
 30
0.0
 70
   128
 71
    98
 72
  -100
 73
   104
  0
VERTEX
  8
12STG26-MAIN
  5
EEE
 10
0.0
 20
0.0
 30
0.0
 70
   128
 71
  -102
 72
   103
 73
   101
  0
VERTEX
  8
12STG26-MAIN
  5
EEF
 10
0.0
 20
0.0
 30
0.0
 70
   128
 71
   104
 72
  -103
 73
   102
  0
VERTEX
  8
12STG26-MAIN
  5
EF0
 10
0.0
 20
0.0
 30
0.0
 70
   128
 71
  -102
 72
   108
 73
   107
  0
VERTEX
  8
12STG26-MAIN
  5
EF1
 10
0.0
 20
0.0
 30
0.0
 70
   128
 71
   101
 72
  -108
 73
   102
  0
VERTEX
  8
12STG26-MAIN
  5
EF2
 10
0.0
 20
0.0
 30
0.0
 70
   128
 71
  -106
 72
   108
 73
   105
  0
VERTEX
  8
12STG26-MAIN
  5
EF3
 10
0.0
 20
0.0
 30
0.0
 70
   128
 71
   107
 72
  -108
 73
   106
  0
VERTEX
  8
12STG26-MAIN
  5
EF4
 10
0.0
 20
0.0
 30
0.0
 70
   128
 71
  -112
 72
   105
 73
   111
  0
VERTEX
  8
12STG26-MAIN
  5
EF5
 10
0.0
 20
0.0
 30
0.0
 70
   128
 71
   106
 72
  -105
 73
   112
  0
VERTEX
  8
12STG26-MAIN
  5
EF6
 10
0.0
 20
0.0
 30
0.0
 70
   128
 71
  -110
 72
   111
 73
   109
  0
VERTEX
  8
12STG26-MAIN
  5
EF7
 10
0.0
 20
0.0
 30
0.0
 70
   128
 71
   112
 72
  -111
 73
   110
  0
VERTEX
  8
12STG26-MAIN
  5
EF8
 10
0.0
 20
0.0
 30
0.0
 70
   128
 71
  -115
 72
   109
 73
   114
  0
VERTEX
  8
12STG26-MAIN
  5
EF9
 10
0.0
 20
0.0
 30
0.0
 70
   128
 71
   110
 72
  -109
 73
   115
  0
VERTEX
  8
12STG26-MAIN
  5
EFA
 10
0.0
 20
0.0
 30
0.0
 70
   128
 71
  -116
 72
   114
 73
   113
  0
VERTEX
  8
12STG26-MAIN
  5
EFB
 10
0.0
 20
0.0
 30
0.0
 70
   128
 71
   115
 72
  -114
 73
   116
  0
VERTEX
  8
12STG26-MAIN
  5
EFC
 10
0.0
 20
0.0
 30
0.0
 70
   128
 71
  -116
 72
   118
 73
   117
  0
VERTEX
  8
12STG26-MAIN
  5
EFD
 10
0.0
 20
0.0
 30
0.0
 70
   128
 71
   113
 72
  -118
 73
   116
  0
VERTEX
  8
12STG26-MAIN
  5
EFE
 10
0.0
 20
0.0
 30
0.0
 70
   128
 71
  -119
 72
   118
 73
   120
  0
VERTEX
  8
12STG26-MAIN
  5
EFF
 10
0.0
 20
0.0
 30
0.0
 70
   128
 71
   117
 72
  -118
 73
   119
  0
VERTEX
  8
12STG26-MAIN
  5
F00
 10
0.0
 20
0.0
 30
0.0
 70
   128
 71
  -119
 72
   123
 73
   124
  0
VERTEX
  8
12STG26-MAIN
  5
F01
 10
0.0
 20
0.0
 30
0.0
 70
   128
 71
   120
 72
  -123
 73
   119
  0
VERTEX
  8
12STG26-MAIN
  5
F02
 10
0.0
 20
0.0
 30
0.0
 70
   128
 71
  -122
 72
   123
 73
   121
  0
VERTEX
  8
12STG26-MAIN
  5
F03
 10
0.0
 20
0.0
 30
0.0
 70
   128
 71
   124
 72
  -123
 73
   122
  0
VERTEX
  8
12STG26-MAIN
  5
F04
 10
0.0
 20
0.0
 30
0.0
 70
   128
 71
  -125
 72
   129
 73
   128
  0
VERTEX
  8
12STG26-MAIN
  5
F05
 10
0.0
 20
0.0
 30
0.0
 70
   128
 71
   126
 72
  -129
 73
   125
  0
VERTEX
  8
12STG26-MAIN
  5
F06
 10
0.0
 20
0.0
 30
0.0
 70
   128
 71
  -128
 72
   131
 73
   127
  0
VERTEX
  8
12STG26-MAIN
  5
F07
 10
0.0
 20
0.0
 30
0.0
 70
   128
 71
   129
 72
  -131
 73
   128
  0
VERTEX
  8
12STG26-MAIN
  5
F08
 10
0.0
 20
0.0
 30
0.0
 70
   128
 71
  -127
 72
   133
 73
   130
  0
VERTEX
  8
12STG26-MAIN
  5
F09
 10
0.0
 20
0.0
 30
0.0
 70
   128
 71
   131
 72
  -133
 73
   127
  0
VERTEX
  8
12STG26-MAIN
  5
F0A
 10
0.0
 20
0.0
 30
0.0
 70
   128
 71
  -134
 72
   133
 73
   132
  0
VERTEX
  8
12STG26-MAIN
  5
F0B
 10
0.0
 20
0.0
 30
0.0
 70
   128
 71
   130
 72
  -133
 73
   134
  0
VERTEX
  8
12STG26-MAIN
  5
F0C
 10
0.0
 20
0.0
 30
0.0
 70
   128
 71
  -135
 72
   132
 73
   137
  0
VERTEX
  8
12STG26-MAIN
  5
F0D
 10
0.0
 20
0.0
 30
0.0
 70
   128
 71
   134
 72
  -132
 73
   135
  0
VERTEX
  8
12STG26-MAIN
  5
F0E
 10
0.0
 20
0.0
 30
0.0
 70
   128
 71
  -136
 72
   137
 73
   139
  0
VERTEX
  8
12STG26-MAIN
  5
F0F
 10
0.0
 20
0.0
 30
0.0
 70
   128
 71
   135
 72
  -137
 73
   136
  0
VERTEX
  8
12STG26-MAIN
  5
F10
 10
0.0
 20
0.0
 30
0.0
 70
   128
 71
  -141
 72
   139
 73
   138
  0
VERTEX
  8
12STG26-MAIN
  5
F11
 10
0.0
 20
0.0
 30
0.0
 70
   128
 71
   136
 72
  -139
 73
   141
  0
VERTEX
  8
12STG26-MAIN
  5
F12
 10
0.0
 20
0.0
 30
0.0
 70
   128
 71
  -140
 72
   138
 73
   143
  0
VERTEX
  8
12STG26-MAIN
  5
F13
 10
0.0
 20
0.0
 30
0.0
 70
   128
 71
   141
 72
  -138
 73
   140
  0
VERTEX
  8
12STG26-MAIN
  5
F14
 10
0.0
 20
0.0
 30
0.0
 70
   128
 71
  -140
 72
   144
 73
   142
  0
VERTEX
  8
12STG26-MAIN
  5
F15
 10
0.0
 20
0.0
 30
0.0
 70
   128
 71
   143
 72
  -144
 73
   140
  0
VERTEX
  8
12STG26-MAIN
  5
F16
 10
0.0
 20
0.0
 30
0.0
 70
   128
 71
  -145
 72
   144
 73
   146
  0
VERTEX
  8
12STG26-MAIN
  5
F17
 10
0.0
 20
0.0
 30
0.0
 70
   128
 71
   142
 72
  -144
 73
   145
  0
VERTEX
  8
12STG26-MAIN
  5
F18
 10
0.0
 20
0.0
 30
0.0
 70
   128
 71
  -145
 72
   148
 73
   149
  0
VERTEX
  8
12STG26-MAIN
  5
F19
 10
0.0
 20
0.0
 30
0.0
 70
   128
 71
   146
 72
  -148
 73
   145
  0
VERTEX
  8
12STG26-MAIN
  5
F1A
 10
0.0
 20
0.0
 30
0.0
 70
   128
 71
  -147
 72
   148
 73
   151
  0
VERTEX
  8
12STG26-MAIN
  5
F1B
 10
0.0
 20
0.0
 30
0.0
 70
   128
 71
   149
 72
  -148
 73
   147
  0
VERTEX
  8
12STG26-MAIN
  5
F1C
 10
0.0
 20
0.0
 30
0.0
 70
   128
 71
  -150
 72
   151
 73
   152
  0
VERTEX
  8
12STG26-MAIN
  5
F1D
 10
0.0
 20
0.0
 30
0.0
 70
   128
 71
   147
 72
  -151
 73
   150
  0
VERTEX
  8
12STG26-MAIN
  5
F1E
 10
0.0
 20
0.0
 30
0.0
 70
   128
 71
  -150
 72
   155
 73
   154
  0
VERTEX
  8
12STG26-MAIN
  5
F1F
 10
0.0
 20
0.0
 30
0.0
 70
   128
 71
   152
 72
  -155
 73
   150
  0
VERTEX
  8
12STG26-MAIN
  5
F20
 10
0.0
 20
0.0
 30
0.0
 70
   128
 71
  -154
 72
   153
 73
   157
  0
VERTEX
  8
12STG26-MAIN
  5
F21
 10
0.0
 20
0.0
 30
0.0
 70
   128
 71
   155
 72
  -153
 73
   154
  0
VERTEX
  8
12STG26-MAIN
  5
F22
 10
0.0
 20
0.0
 30
0.0
 70
   128
 71
  -156
 72
   153
 73
   160
  0
VERTEX
  8
12STG26-MAIN
  5
F23
 10
0.0
 20
0.0
 30
0.0
 70
   128
 71
   157
 72
  -153
 73
   156
  0
VERTEX
  8
12STG26-MAIN
  5
F24
 10
0.0
 20
0.0
 30
0.0
 70
   128
 71
  -159
 72
   160
 73
   158
  0
VERTEX
  8
12STG26-MAIN
  5
F25
 10
0.0
 20
0.0
 30
0.0
 70
   128
 71
   156
 72
  -160
 73
   159
  0
VERTEX
  8
12STG26-MAIN
  5
F26
 10
0.0
 20
0.0
 30
0.0
 70
   128
 71
  -159
 72
   162
 73
   161
  0
VERTEX
  8
12STG26-MAIN
  5
F27
 10
0.0
 20
0.0
 30
0.0
 70
   128
 71
   158
 72
  -162
 73
   159
  0
VERTEX
  8
12STG26-MAIN
  5
F28
 10
0.0
 20
0.0
 30
0.0
 70
   128
 71
  -164
 72
    86
 73
   163
  0
VERTEX
  8
12STG26-MAIN
  5
F29
 10
0.0
 20
0.0
 30
0.0
 70
   128
 71
   165
 72
   -86
 73
   164
  0
VERTEX
  8
12STG26-MAIN
  5
F2A
 10
0.0
 20
0.0
 30
0.0
 70
   128
 71
   -86
 72
   166
 73
   167
  0
VERTEX
  8
12STG26-MAIN
  5
F2B
 10
0.0
 20
0.0
 30
0.0
 70
   128
 71
    86
 72
   163
 73
  -166
  0
VERTEX
  8
12STG26-MAIN
  5
F2C
 10
0.0
 20
0.0
 30
0.0
 70
   128
 71
  -167
 72
   171
 73
   172
  0
VERTEX
  8
12STG26-MAIN
  5
F2D
 10
0.0
 20
0.0
 30
0.0
 70
   128
 71
   167
 72
   166
 73
  -171
  0
VERTEX
  8
12STG26-MAIN
  5
F2E
 10
0.0
 20
0.0
 30
0.0
 70
   128
 71
    -3
 72
   169
 73
   168
  0
VERTEX
  8
12STG26-MAIN
  5
F2F
 10
0.0
 20
0.0
 30
0.0
 70
   128
 71
   170
 72
  -169
 73
     3
  0
VERTEX
  8
12STG26-MAIN
  5
F30
 10
0.0
 20
0.0
 30
0.0
 70
   128
 71
   -86
 72
   171
 73
   163
  0
VERTEX
  8
12STG26-MAIN
  5
F31
 10
0.0
 20
0.0
 30
0.0
 70
   128
 71
    86
 72
   172
 73
  -171
  0
VERTEX
  8
12STG26-MAIN
  5
F32
 10
0.0
 20
0.0
 30
0.0
 70
   128
 71
  -174
 72
   175
 73
   173
  0
VERTEX
  8
12STG26-MAIN
  5
F33
 10
0.0
 20
0.0
 30
0.0
 70
   128
 71
   174
 72
   176
 73
  -175
  0
VERTEX
  8
12STG26-MAIN
  5
F34
 10
0.0
 20
0.0
 30
0.0
 70
   128
 71
  -178
 72
   174
 73
   177
  0
VERTEX
  8
12STG26-MAIN
  5
F35
 10
0.0
 20
0.0
 30
0.0
 70
   128
 71
   178
 72
   176
 73
  -174
  0
VERTEX
  8
12STG26-MAIN
  5
F36
 10
0.0
 20
0.0
 30
0.0
 70
   128
 71
  -179
 72
   178
 73
   177
  0
VERTEX
  8
12STG26-MAIN
  5
F37
 10
0.0
 20
0.0
 30
0.0
 70
   128
 71
   179
 72
   181
 73
  -178
  0
VERTEX
  8
12STG26-MAIN
  5
F38
 10
0.0
 20
0.0
 30
0.0
 70
   128
 71
  -180
 72
   181
 73
   179
  0
VERTEX
  8
12STG26-MAIN
  5
F39
 10
0.0
 20
0.0
 30
0.0
 70
   128
 71
   180
 72
   184
 73
  -181
  0
VERTEX
  8
12STG26-MAIN
  5
F3A
 10
0.0
 20
0.0
 30
0.0
 70
   128
 71
  -183
 72
   180
 73
   182
  0
VERTEX
  8
12STG26-MAIN
  5
F3B
 10
0.0
 20
0.0
 30
0.0
 70
   128
 71
   183
 72
   184
 73
  -180
  0
VERTEX
  8
12STG26-MAIN
  5
F3C
 10
0.0
 20
0.0
 30
0.0
 70
   128
 71
  -186
 72
   182
 73
   185
  0
VERTEX
  8
12STG26-MAIN
  5
F3D
 10
0.0
 20
0.0
 30
0.0
 70
   128
 71
   186
 72
   183
 73
  -182
  0
VERTEX
  8
12STG26-MAIN
  5
F3E
 10
0.0
 20
0.0
 30
0.0
 70
   128
 71
  -188
 72
   185
 73
   187
  0
VERTEX
  8
12STG26-MAIN
  5
F3F
 10
0.0
 20
0.0
 30
0.0
 70
   128
 71
   188
 72
   186
 73
  -185
  0
VERTEX
  8
12STG26-MAIN
  5
F40
 10
0.0
 20
0.0
 30
0.0
 70
   128
 71
  -190
 72
   187
 73
   189
  0
VERTEX
  8
12STG26-MAIN
  5
F41
 10
0.0
 20
0.0
 30
0.0
 70
   128
 71
   190
 72
   188
 73
  -187
  0
VERTEX
  8
12STG26-MAIN
  5
F42
 10
0.0
 20
0.0
 30
0.0
 70
   128
 71
  -191
 72
   190
 73
   189
  0
VERTEX
  8
12STG26-MAIN
  5
F43
 10
0.0
 20
0.0
 30
0.0
 70
   128
 71
   191
 72
   192
 73
  -190
  0
VERTEX
  8
12STG26-MAIN
  5
F44
 10
0.0
 20
0.0
 30
0.0
 70
   128
 71
  -193
 72
   191
 73
   194
  0
VERTEX
  8
12STG26-MAIN
  5
F45
 10
0.0
 20
0.0
 30
0.0
 70
   128
 71
   193
 72
   192
 73
  -191
  0
VERTEX
  8
12STG26-MAIN
  5
F46
 10
0.0
 20
0.0
 30
0.0
 70
   128
 71
  -196
 72
   193
 73
   194
  0
VERTEX
  8
12STG26-MAIN
  5
F47
 10
0.0
 20
0.0
 30
0.0
 70
   128
 71
   196
 72
   197
 73
  -193
  0
VERTEX
  8
12STG26-MAIN
  5
F48
 10
0.0
 20
0.0
 30
0.0
 70
   128
 71
  -198
 72
   196
 73
   195
  0
VERTEX
  8
12STG26-MAIN
  5
F49
 10
0.0
 20
0.0
 30
0.0
 70
   128
 71
   198
 72
   197
 73
  -196
  0
VERTEX
  8
12STG26-MAIN
  5
F4A
 10
0.0
 20
0.0
 30
0.0
 70
   128
 71
  -202
 72
   200
 73
   199
  0
VERTEX
  8
12STG26-MAIN
  5
F4B
 10
0.0
 20
0.0
 30
0.0
 70
   128
 71
   202
 72
   201
 73
  -200
  0
VERTEX
  8
12STG26-MAIN
  5
F4C
 10
0.0
 20
0.0
 30
0.0
 70
   128
 71
  -203
 72
   202
 73
   204
  0
VERTEX
  8
12STG26-MAIN
  5
F4D
 10
0.0
 20
0.0
 30
0.0
 70
   128
 71
   203
 72
   201
 73
  -202
  0
VERTEX
  8
12STG26-MAIN
  5
F4E
 10
0.0
 20
0.0
 30
0.0
 70
   128
 71
  -205
 72
   203
 73
   204
  0
VERTEX
  8
12STG26-MAIN
  5
F4F
 10
0.0
 20
0.0
 30
0.0
 70
   128
 71
   205
 72
   206
 73
  -203
  0
VERTEX
  8
12STG26-MAIN
  5
F50
 10
0.0
 20
0.0
 30
0.0
 70
   128
 71
  -209
 72
   206
 73
   205
  0
VERTEX
  8
12STG26-MAIN
  5
F51
 10
0.0
 20
0.0
 30
0.0
 70
   128
 71
   209
 72
   207
 73
  -206
  0
VERTEX
  8
12STG26-MAIN
  5
F52
 10
0.0
 20
0.0
 30
0.0
 70
   128
 71
  -210
 72
   209
 73
   208
  0
VERTEX
  8
12STG26-MAIN
  5
F53
 10
0.0
 20
0.0
 30
0.0
 70
   128
 71
   210
 72
   207
 73
  -209
  0
VERTEX
  8
12STG26-MAIN
  5
F54
 10
0.0
 20
0.0
 30
0.0
 70
   128
 71
  -211
 72
   210
 73
   208
  0
VERTEX
  8
12STG26-MAIN
  5
F55
 10
0.0
 20
0.0
 30
0.0
 70
   128
 71
   211
 72
   213
 73
  -210
  0
VERTEX
  8
12STG26-MAIN
  5
F56
 10
0.0
 20
0.0
 30
0.0
 70
   128
 71
  -212
 72
   211
 73
   215
  0
VERTEX
  8
12STG26-MAIN
  5
F57
 10
0.0
 20
0.0
 30
0.0
 70
   128
 71
   212
 72
   213
 73
  -211
  0
VERTEX
  8
12STG26-MAIN
  5
F58
 10
0.0
 20
0.0
 30
0.0
 70
   128
 71
  -216
 72
   215
 73
   214
  0
VERTEX
  8
12STG26-MAIN
  5
F59
 10
0.0
 20
0.0
 30
0.0
 70
   128
 71
   216
 72
   212
 73
  -215
  0
VERTEX
  8
12STG26-MAIN
  5
F5A
 10
0.0
 20
0.0
 30
0.0
 70
   128
 71
  -218
 72
   216
 73
   214
  0
VERTEX
  8
12STG26-MAIN
  5
F5B
 10
0.0
 20
0.0
 30
0.0
 70
   128
 71
   218
 72
   217
 73
  -216
  0
VERTEX
  8
12STG26-MAIN
  5
F5C
 10
0.0
 20
0.0
 30
0.0
 70
   128
 71
  -220
 72
   218
 73
   219
  0
VERTEX
  8
12STG26-MAIN
  5
F5D
 10
0.0
 20
0.0
 30
0.0
 70
   128
 71
   220
 72
   217
 73
  -218
  0
VERTEX
  8
12STG26-MAIN
  5
F5E
 10
0.0
 20
0.0
 30
0.0
 70
   128
 71
  -222
 72
   220
 73
   219
  0
VERTEX
  8
12STG26-MAIN
  5
F5F
 10
0.0
 20
0.0
 30
0.0
 70
   128
 71
   222
 72
   221
 73
  -220
  0
VERTEX
  8
12STG26-MAIN
  5
F60
 10
0.0
 20
0.0
 30
0.0
 70
   128
 71
  -223
 72
   221
 73
   222
  0
VERTEX
  8
12STG26-MAIN
  5
F61
 10
0.0
 20
0.0
 30
0.0
 70
   128
 71
   223
 72
   224
 73
  -221
  0
SEQEND
  8
12STG26-MAIN
  5
F62
  0
POLYLINE
  8
12STG26-MAIN
  5
F63
 66
     1
 10
0.0
 20
0.0
 30
0.0
 70
    64
 71
    32
 72
    24
1001
AVE_ENTITY_MATERIAL
1002
{
1000

1002
{
1071
        0
1070
     0
1070
     0
1002
{
1070
     0
1070
     0
1070
     0
1040
0.0
1002
}
1070
     0
1070
     0
1002
{
1002
}
1002
}
1002
{
1002
}
1002
{
1002
}
1011
0.0
1021
0.0
1031
0.0
1011
1.0
1021
0.0
1031
0.0
1011
0.0
1021
1.0
1031
0.0
1011
0.0
1021
0.0
1031
1.0
1002
}
1001
AVE_FINISH
1002
{
1070
     0
1005
66C
1002
}
  0
VERTEX
  8
12STG26-MAIN
  5
F64
 10
16.022
 20
3.982
 30
18.32
 70
   192
  0
VERTEX
  8
12STG26-MAIN
  5
F65
 10
15.2
 20
-1.298
 30
15.606
 70
   192
  0
VERTEX
  8
12STG26-MAIN
  5
F66
 10
15.2
 20
-1.298
 30
18.388
 70
   192
  0
VERTEX
  8
12STG26-MAIN
  5
F67
 10
16.022
 20
12.883
 30
18.32
 70
   192
  0
VERTEX
  8
12STG26-MAIN
  5
F68
 10
16.022
 20
12.883
 30
15.538
 70
   192
  0
VERTEX
  8
12STG26-MAIN
  5
F69
 10
16.022
 20
3.982
 30
15.538
 70
   192
  0
VERTEX
  8
12STG26-MAIN
  5
F6A
 10
15.2
 20
18.163
 30
18.388
 70
   192
  0
VERTEX
  8
12STG26-MAIN
  5
F6B
 10
15.2
 20
18.163
 30
15.606
 70
   192
  0
VERTEX
  8
12STG26-MAIN
  5
F6C
 10
16.871
 20
18.163
 30
15.42
 70
   192
  0
VERTEX
  8
12STG26-MAIN
  5
F6D
 10
16.643
 20
18.163
 30
18.203
 70
   192
  0
VERTEX
  8
12STG26-MAIN
  5
F6E
 10
17.465
 20
12.883
 30
18.134
 70
   192
  0
VERTEX
  8
12STG26-MAIN
  5
F6F
 10
17.465
 20
3.982
 30
18.134
 70
   192
  0
VERTEX
  8
12STG26-MAIN
  5
F70
 10
17.419
 20
12.883
 30
15.353
 70
   192
  0
VERTEX
  8
12STG26-MAIN
  5
F71
 10
16.643
 20
-1.298
 30
18.203
 70
   192
  0
VERTEX
  8
12STG26-MAIN
  5
F72
 10
16.871
 20
-1.298
 30
15.42
 70
   192
  0
VERTEX
  8
12STG26-MAIN
  5
F73
 10
17.419
 20
3.982
 30
15.353
 70
   192
  0
VERTEX
  8
12STG26-MAIN
  5
F74
 10
3.229
 20
4.754
 30
15.538
 70
   192
  0
VERTEX
  8
12STG26-MAIN
  5
F75
 10
4.051
 20
0.391
 30
15.606
 70
   192
  0
VERTEX
  8
12STG26-MAIN
  5
F76
 10
4.051
 20
0.391
 30
18.388
 70
   192
  0
VERTEX
  8
12STG26-MAIN
  5
F77
 10
3.229
 20
4.754
 30
18.32
 70
   192
  0
VERTEX
  8
12STG26-MAIN
  5
F78
 10
4.051
 20
16.474
 30
18.388
 70
   192
  0
VERTEX
  8
12STG26-MAIN
  5
F79
 10
4.051
 20
16.474
 30
15.606
 70
   192
  0
VERTEX
  8
12STG26-MAIN
  5
F7A
 10
3.229
 20
12.11
 30
15.538
 70
   192
  0
VERTEX
  8
12STG26-MAIN
  5
F7B
 10
3.229
 20
12.11
 30
18.32
 70
   192
  0
VERTEX
  8
12STG26-MAIN
  5
F7C
 10
1.788
 20
16.474
 30
15.42
 70
   192
  0
VERTEX
  8
12STG26-MAIN
  5
F7D
 10
1.604
 20
12.11
 30
18.134
 70
   192
  0
VERTEX
  8
12STG26-MAIN
  5
F7E
 10
2.002
 20
16.474
 30
18.203
 70
   192
  0
VERTEX
  8
12STG26-MAIN
  5
F7F
 10
1.498
 20
4.754
 30
15.353
 70
   192
  0
VERTEX
  8
12STG26-MAIN
  5
F80
 10
1.498
 20
12.11
 30
15.353
 70
   192
  0
VERTEX
  8
12STG26-MAIN
  5
F81
 10
2.002
 20
0.391
 30
18.203
 70
   192
  0
VERTEX
  8
12STG26-MAIN
  5
F82
 10
1.788
 20
0.391
 30
15.42
 70
   192
  0
VERTEX
  8
12STG26-MAIN
  5
F83
 10
1.604
 20
4.754
 30
18.134
 70
   192
  0
VERTEX
  8
12STG26-MAIN
  5
F84
 10
0.0
 20
0.0
 30
0.0
 70
   128
 71
    -3
 72
     6
 73
     1
  0
VERTEX
  8
12STG26-MAIN
  5
F85
 10
0.0
 20
0.0
 30
0.0
 70
   128
 71
     3
 72
     2
 73
    -6
  0
VERTEX
  8
12STG26-MAIN
  5
F86
 10
0.0
 20
0.0
 30
0.0
 70
   128
 71
     6
 72
     5
 73
    -4
  0
VERTEX
  8
12STG26-MAIN
  5
F87
 10
0.0
 20
0.0
 30
0.0
 70
   128
 71
     4
 72
     1
 73
    -6
  0
VERTEX
  8
12STG26-MAIN
  5
F88
 10
0.0
 20
0.0
 30
0.0
 70
   128
 71
    -4
 72
     8
 73
     7
  0
VERTEX
  8
12STG26-MAIN
  5
F89
 10
0.0
 20
0.0
 30
0.0
 70
   128
 71
     4
 72
     5
 73
    -8
  0
VERTEX
  8
12STG26-MAIN
  5
F8A
 10
0.0
 20
0.0
 30
0.0
 70
   128
 71
    -9
 72
    11
 73
    13
  0
VERTEX
  8
12STG26-MAIN
  5
F8B
 10
0.0
 20
0.0
 30
0.0
 70
   128
 71
    10
 72
   -11
 73
     9
  0
VERTEX
  8
12STG26-MAIN
  5
F8C
 10
0.0
 20
0.0
 30
0.0
 70
   128
 71
    16
 72
   -13
 73
    12
  0
VERTEX
  8
12STG26-MAIN
  5
F8D
 10
0.0
 20
0.0
 30
0.0
 70
   128
 71
    11
 72
   -12
 73
    13
  0
VERTEX
  8
12STG26-MAIN
  5
F8E
 10
0.0
 20
0.0
 30
0.0
 70
   128
 71
   -15
 72
    12
 73
    14
  0
VERTEX
  8
12STG26-MAIN
  5
F8F
 10
0.0
 20
0.0
 30
0.0
 70
   128
 71
    16
 72
   -12
 73
    15
  0
VERTEX
  8
12STG26-MAIN
  5
F90
 10
0.0
 20
0.0
 30
0.0
 70
   128
 71
   -19
 72
    17
 73
    20
  0
VERTEX
  8
12STG26-MAIN
  5
F91
 10
0.0
 20
0.0
 30
0.0
 70
   128
 71
    19
 72
    18
 73
   -17
  0
VERTEX
  8
12STG26-MAIN
  5
F92
 10
0.0
 20
0.0
 30
0.0
 70
   128
 71
    17
 72
    23
 73
   -24
  0
VERTEX
  8
12STG26-MAIN
  5
F93
 10
0.0
 20
0.0
 30
0.0
 70
   128
 71
    24
 72
    20
 73
   -17
  0
VERTEX
  8
12STG26-MAIN
  5
F94
 10
0.0
 20
0.0
 30
0.0
 70
   128
 71
   -24
 72
    22
 73
    21
  0
VERTEX
  8
12STG26-MAIN
  5
F95
 10
0.0
 20
0.0
 30
0.0
 70
   128
 71
    24
 72
    23
 73
   -22
  0
VERTEX
  8
12STG26-MAIN
  5
F96
 10
0.0
 20
0.0
 30
0.0
 70
   128
 71
   -25
 72
    26
 73
    29
  0
VERTEX
  8
12STG26-MAIN
  5
F97
 10
0.0
 20
0.0
 30
0.0
 70
   128
 71
    27
 72
   -26
 73
    25
  0
VERTEX
  8
12STG26-MAIN
  5
F98
 10
0.0
 20
0.0
 30
0.0
 70
   128
 71
    28
 72
   -29
 73
    32
  0
VERTEX
  8
12STG26-MAIN
  5
F99
 10
0.0
 20
0.0
 30
0.0
 70
   128
 71
    26
 72
   -32
 73
    29
  0
VERTEX
  8
12STG26-MAIN
  5
F9A
 10
0.0
 20
0.0
 30
0.0
 70
   128
 71
   -31
 72
    32
 73
    30
  0
VERTEX
  8
12STG26-MAIN
  5
F9B
 10
0.0
 20
0.0
 30
0.0
 70
   128
 71
    28
 72
   -32
 73
    31
  0
SEQEND
  8
12STG26-MAIN
  5
F9C
  0
POLYLINE
  8
12STG26-MAIN
  5
F9D
 66
     1
 10
0.0
 20
0.0
 30
0.0
 70
    64
 71
    16
 72
    12
1001
AVE_ENTITY_MATERIAL
1002
{
1000

1002
{
1071
        0
1070
     0
1070
     0
1002
{
1070
     0
1070
     0
1070
     0
1040
0.0
1002
}
1070
     0
1070
     0
1002
{
1002
}
1002
}
1002
{
1002
}
1002
{
1002
}
1011
0.0
1021
0.0
1031
0.0
1011
1.0
1021
0.0
1031
0.0
1011
0.0
1021
1.0
1031
0.0
1011
0.0
1021
0.0
1031
1.0
1002
}
1001
AVE_FINISH
1002
{
1070
     0
1005
6EF
1002
}
  0
VERTEX
  8
12STG26-MAIN
  5
F9E
 10
15.2
 20
-1.298
 30
18.388
 70
   192
  0
VERTEX
  8
12STG26-MAIN
  5
F9F
 10
15.2
 20
-1.298
 30
15.606
 70
   192
  0
VERTEX
  8
12STG26-MAIN
  5
FA0
 10
16.871
 20
-1.298
 30
15.42
 70
   192
  0
VERTEX
  8
12STG26-MAIN
  5
FA1
 10
16.643
 20
-1.298
 30
18.203
 70
   192
  0
VERTEX
  8
12STG26-MAIN
  5
FA2
 10
16.643
 20
18.163
 30
18.203
 70
   192
  0
VERTEX
  8
12STG26-MAIN
  5
FA3
 10
16.871
 20
18.163
 30
15.42
 70
   192
  0
VERTEX
  8
12STG26-MAIN
  5
FA4
 10
4.051
 20
0.391
 30
15.606
 70
   192
  0
VERTEX
  8
12STG26-MAIN
  5
FA5
 10
1.788
 20
0.391
 30
15.42
 70
   192
  0
VERTEX
  8
12STG26-MAIN
  5
FA6
 10
2.002
 20
0.391
 30
18.203
 70
   192
  0
VERTEX
  8
12STG26-MAIN
  5
FA7
 10
1.788
 20
16.474
 30
15.42
 70
   192
  0
VERTEX
  8
12STG26-MAIN
  5
FA8
 10
4.051
 20
16.474
 30
15.606
 70
   192
  0
VERTEX
  8
12STG26-MAIN
  5
FA9
 10
4.051
 20
16.474
 30
18.388
 70
   192
  0
VERTEX
  8
12STG26-MAIN
  5
FAA
 10
2.002
 20
16.474
 30
18.203
 70
   192
  0
VERTEX
  8
12STG26-MAIN
  5
FAB
 10
4.051
 20
0.391
 30
18.388
 70
   192
  0
VERTEX
  8
12STG26-MAIN
  5
FAC
 10
15.2
 20
18.163
 30
15.606
 70
   192
  0
VERTEX
  8
12STG26-MAIN
  5
FAD
 10
15.2
 20
18.163
 30
18.388
 70
   192
  0
VERTEX
  8
12STG26-MAIN
  5
FAE
 10
0.0
 20
0.0
 30
0.0
 70
   128
 71
     3
 72
     2
 73
    -1
  0
VERTEX
  8
12STG26-MAIN
  5
FAF
 10
0.0
 20
0.0
 30
0.0
 70
   128
 71
     1
 72
     4
 73
    -3
  0
VERTEX
  8
12STG26-MAIN
  5
FB0
 10
0.0
 20
0.0
 30
0.0
 70
   128
 71
     6
 72
   -15
 73
     5
  0
VERTEX
  8
12STG26-MAIN
  5
FB1
 10
0.0
 20
0.0
 30
0.0
 70
   128
 71
    16
 72
    -5
 73
    15
  0
VERTEX
  8
12STG26-MAIN
  5
FB2
 10
0.0
 20
0.0
 30
0.0
 70
   128
 71
     7
 72
    -8
 73
    14
  0
VERTEX
  8
12STG26-MAIN
  5
FB3
 10
0.0
 20
0.0
 30
0.0
 70
   128
 71
     9
 72
   -14
 73
     8
  0
VERTEX
  8
12STG26-MAIN
  5
FB4
 10
0.0
 20
0.0
 30
0.0
 70
   128
 71
    11
 72
    10
 73
   -13
  0
VERTEX
  8
12STG26-MAIN
  5
FB5
 10
0.0
 20
0.0
 30
0.0
 70
   128
 71
    13
 72
    12
 73
   -11
  0
VERTEX
  8
12STG26-MAIN
  5
FB6
 10
0.0
 20
0.0
 30
0.0
 70
   128
 71
     2
 72
     7
 73
   -14
  0
VERTEX
  8
12STG26-MAIN
  5
FB7
 10
0.0
 20
0.0
 30
0.0
 70
   128
 71
    14
 72
     1
 73
    -2
  0
VERTEX
  8
12STG26-MAIN
  5
FB8
 10
0.0
 20
0.0
 30
0.0
 70
   128
 71
    15
 72
    11
 73
   -12
  0
VERTEX
  8
12STG26-MAIN
  5
FB9
 10
0.0
 20
0.0
 30
0.0
 70
   128
 71
    12
 72
    16
 73
   -15
  0
SEQEND
  8
12STG26-MAIN
  5
FBA
  0
ENDSEC
  0
EOF
